Led Zeppelin

home > Led Zeppelin

Rain Song (ver. 2) Tab

Led Zeppelin

Difficulty: ExpertExpert

by rudygetsplenty

tuner correct add songbook print version text version save to e-mail
chordsukulelecavacokeyboardtabbassdrumsharmonicsflute Guitar Pro
chords

Rain Song (ver. 2)

	  First submission, I love this song but hate retuning my guitar  
(and changing strings!), so this is in standard tuning.  All other  
tabs I’ve seen for this song are in open/chordal tuning. 


---3---------3--3--3--3--3--0------2-------2--2--2--2--2---------- 
---3---------3--3--3--3--3--0------3-------3--3--3--3--3---------- 
---0---------0--0--0--0--0-- -------0-------0--0--0--0--0--------- 
---0---------0--0--0--0--0-- -------0-------0--0--0--0--0--------- 
---2---------2--2--2--2--2---- -----2-------2--2--2--2--2--------- 
---3---------3--3--3--3--3----- ----3-------3--3--3--3--3-------- 

---------------------------------3-------3--3--3--3--3---------- 
---------6---6---4---3---------4-------4--4--4--4--4--------- 
---------4---4---4---4---------3-------3--3--3--3--3---------- 
---------------------------------5-------5--5--5--5--5---------- 
---------------------------------3-------3--3--3--3--3---------- 
-----3---------------------------3-------3--3--3--3--3---------- 

					(Repeat) 

-------------------------------------------7---5---8---7----------------------- 
-------------3---3----3--3--3-----------8---8---8---8-------5----10--10--- 
-----2-------4---4----4--4--4-----------7---7---7---7-------7----12--12-- 
-----0-------0---0----0--0--0---------------------------------5----10--10-- 
-----0-------x---x----x--x--x---------------------------------0-----x----x-- 
-----3-------3---3----x--x--x---------------------------------------11--11-- 

This phrase repeats: 
----6 \ 5---5--5--5------5---5--5--5--------------- 
----7 \ 6---6--6--6------6---6--6--6--------------- 
----5 / 4---4--4--4------7---7--7--7---------------- 
----6 \ 5---5--5--5------8---8--8--8---------------- 
--------------------------------------------------------- 
				(Repeat)	     (2nd time): 

----3-----3---3--3--3----3---3---3--3--3------------------------------ 
----1-----1---1--1--1----1---1---1--1--1---------------------3--3---- 
----0-----0---0--0--0----0---0---0--0--0---------------2----4--4---- 
----3-----2---2--2--2----3---2-------2--3---------------0----0--0---- 
---------------3--3--3-------------3-----------------------x----x--x---- 
-------------------------------------------------------------3----3--3---- 
					 
------------------------------------------------------------------ 
--2--4----2---------------2---4--4----2--4-----2------------- 
---------5----2--5--0-----1-------------------5-----2--5--0-- 
------------------------------------------------------------------- 
------------------------------------------------------------------- 
------------------------------------------------------------------- 

----------------------------------------------------0------------------------ 
--2---4--4---2--4-----2--------------2---0--0-------3-------------------- 
--2-----------------5-----2--5--0----3-------------------4---------------- 
-----------------------------------------------------------------5------------ 
----------------------------------------------------------------------------- 
---------------------------------------------------------------------------- 

----------------------0---------3---------------------2-----2--------------- 
---------------0---------1---------5----------3---3----3-----3------------ 
-------0----------0--------------------5------4------------------4--------- 
-----------2-----------------------------------5---------------------5------ 
---3------------------------------------------------------------------------- 
------------------------------------------------------------------------------ 

--3--------------------------------3-------------------------------------------------- 
---3----5---3h5p3---------------3---5----3h5p3----------------3---3------------ 
---5------------------5------------5------------------5--------2---4---4------------ 
---5---------------------5---------5---------------------5-----0---0---0------------ 
---3-------------------------3-----3----------------------------x---x---x----------- 
---3--------------------------------3----------------------------3---3---3-----------
	  

there isn't a video lesson for this song

request
Search
auto scroll beats size up size down change color hide chords drawings
tab show chords e-chords YouTube Clip e-chords hide all tabs e-chords go to top tab