Hillsong United

home > Hillsong U... > chords

An Introduction Tab

Hillsong United

Difficulty: AdvancedAdvanced

by Kblovsky

tuner correct add songbook print version text version rtf version e-mail
chordsukulelecavacokeyboardtabbassdrumsharmonicsflute Guitar Pro
chords

An Introduction

	   Música: An Introduction 
 Artista: Hillsong UNITED 
 Album: We Stand 



 e|-------------------------------------------------- 
 B|-------------------12-14--------------------12-14- 
 G|-14-14-14-14-14-14--------13-13-13-13-13-13------- 
 D|-------------------------------------------------- 
 A|-------------------------------------------------- 
 E|-------------------------------------------------- 

 e|-------------------------------------------------- 
 B|-------------------------------------------------- 
 G|-11-11-11-11-11-11-14-13--9-9-9-9-9-9-9-9--------- 
 D|-------------------------------------------------- 
 A|-------------------------------------------------- 
 E|-------------------------------------------------- 

   2x TUDO ISSO ACIMA 

 2ª PARTE: 
  
 e|--------------------------------- 
 B|-3---3---3---3---3---3---5---5--- 
 G|-6b7-6b7-6b7-6b7-6b7-6b7-8b9-8b9- 
 D|--------------------------------- 
 A|--------------------------------- 
 E|--------------------------------- 

 e|--------------------------------- 
 B|-2---2---2---2---2---2---2---2--- 
 G|-5b6-5b6-5b6-5b6-5b6-5b6-5b6-5b6- 
 D|--------------------------------- 
 A|--------------------------------- 
 E|--------------------------------- 

 e|--------------------------------- 
 B|-3---3---3---3---3---3---3---3--- 
 G|-6b7-6b7-6b7-6b7-6b7-6b7-6b7-6b7- 
 D|--------------------------------- 
 A|--------------------------------- 
 E|--------------------------------- 

 e|--------------------------------- 
 B|-5---5---5---5---5---5---5---5--- 
 G|-8b9-8b9-8b9-8b9-8b9-8b9-8b9-8b9- 
 D|--------------------------------- 
 A|--------------------------------- 
 E|--------------------------------- 

 2x TODA ESSA 2ª PARTE ACIMA TBM 

 3ª PARTE: 

e|---------------------------------------------------- 
B|-12-12-12-12-12-12-14-14-----------------------14--- 
G|--------------------------14-14-14-14-14-14-16------ 
D|---------------------------------------------------- 
A|---------------------------------------------------- 
E|---------------------------------------------------- 

e|----------------------14---------------------------- 
B|-15-15-15-15-15-15-17-----17-17-17------------------ 
G|-----------------------------------14-13-13-14-14--- 
D|---------------------------------------------------- 
A|---------------------------------------------------- 
E|---------------------------------------------------- 

e|---------------------------------------------------- 
B|-15-15-15-15-15-15-17-17--14-14-14-14-14-14----14--- 
G|--------------------------------------------16------ 
D|---------------------------------------------------- 
A|---------------------------------------------------- 
E|---------------------------------------------------- 

e|-----------------------------------17-16-16-17-17--- 
B|-15-15-15-15-15-15-15-15--17-17-17------------------ 
G|---------------------------------------------------- 
D|---------------------------------------------------- 
A|---------------------------------------------------- 
E|---------------------------------------------------- 

e|---------------------------------------------------- 
B|-10-10-10-10-10-10-10-10---------------------------- 
G|---------------------------------------------------- 
D|---------------------------------------------------- 
A|---------------------------------------------------- 
E|---Lacy-"KBLOVSKY"-Campos---Itapetininga-SP--------- 


 Observação todas as notas são tocadas 4 vezes,   rapidamente!!! 

Flw! 
Abraço.  



	  

Request the video "An Introduction"  -  Send "An Introduction" Ringtone to your Cell

there isn't a video lesson for this song

request
e-chords
Search
auto scroll beats size up size down change color hide chords drawings
tab show chords e-chords YouTube Clip e-chords hide all tabs e-chords go to top tab