Charly Garcia

home > Charly Gar... > chords

El Fantasma De Canterville Tab

Charly Garcia

Difficulty: nolevelnolevel

by crisaraujo

tuner correct add songbook print version text version rtf version e-mail
chordsukulelecavacokeyboardtabbassdrumsharmonicsflute Guitar Pro
chords

El Fantasma De Canterville

(Charly García)

	  Autor: Carlos Alberto Moreno Garcia (charly Garcia) 


HOLA,LES MANDO ESTA TRANSCRIPCION QUE CRE0 QUE ESTA BIEN ESCUCHEN BIEN LA 
CANCION PARA SACAR EL PUNTEO CON LOS TIEMPOS EXACTOS. 
ES MUY SENCILLA SI LE PONEN GANAS 

----------/----------------------------------------------------- 
----------/----------------------------------------------------- 
----------/----------------------------------------------------- 
----------/------------------------------------5--5--7--5--5--5- 
-5--5--7--/5--5--5--7--5--5--5--7--5--5--5--7--3--3--3--3--3--3- 
-3--3--3--/3--3--3--3--3--3--3--3--3--3--3--3------------------- 


----------------------------------------------------------------- 
----------------------------------------------------------------- 
----------------------------------------------------------------- 
-7--5--5--5--7--5--5--5--7--------------------------------------- 
-3--3--3--3--3--3--3--3--3--5--5--7--5--5--5--7--5--5--5--7--5--5 
----------------------------3--3--3--3--3--3--3--3--3--3--3--3--3 


--------------------------------------------------------------- 
--------------------------------------------------------------- 
--------------------------------------------------------------- 
--------5--5--7--5--5--5--7--5--5--5--7--5--5--5--7--7--7--9--- 
--5--7--3--3--3--3--3--3--3--3--3--3--3--3--3--3--3--5--5--5--- 
--3--3--------------------------------------------------------- 



----------------------------------------------------------------- 
----------------------------------------------------------------- 
----------------------------------------------------------------- 
----------------------------------------------------------------- 
--5--5--5--7--5--5--5--7--5--5--5--7--5--5--5--7--7--7--9--7--7-- 
--3--3--3--3--3--3--3--3--3--3--3--3--3--3--3--3--5--5--5--5--5-- 


----------------------------------------------------------------- 
----------------------------------------------------------------- 
----------------------------------------------------------------- 
----------------------------------------------------------------- 
7--9--5--5--5--7--5--5--5--7--5--5--5--7--5--5--5--7--5--5------- 
5--5--3--3--3--3--3--3--3--3--3--3--3--3--3--3--3--3--3--3------- 


G         C      G 
Yo era un hombre bueno 
           C                  G 
si hay alguien bueno en esta lugar 
            C     G 
Pague todas mis deudas 
   C                     G 
pague mi oportunidad de amar 
      D      Dsus4  D 
sin embargo estoy tirado 
  Am                  Em C 
y nadie se acuerda de mi 
        G 
paso a traves de la gente 
             D       C     G 
como el fantasma de Canterville 

Me han ofendido mucho 
y nadie dio una explicacion 
Ay! si pudiera  matarlos 
lo haria sin ningun temor 
pero siempre fui un tonto 
que creyo en la legalidad 
ahora que estoy afuera 
ya se lo que es la libertad 

Ahora que puedo amarte 
yo voy a amarte de verdad 
mientras me quede aire 
calor nunca te va a faltar 
y jamas volvere a fijarme 
en la cara de los demas 
esa careta idota 
que tira y tira para atras  C G E 

A 
He muerto muchas veces 
D                      A 
acrivillado en la ciudad 
                  Fam# 
pero es mejor ser muerto 
       D                   A 
que un numero que viene y va 
        E     Esus4 E 
y en mi tumba tengo discos 
  Bm                    Fam# 
y cosas que no me hacen mal 
           A 
despues de muerto, nena 
    E                 Fam#   A 
vos me vendras a visitar. 
          A 
despues de muerto, nena 
    E                A   E A 
vos me vendras a visitar.           NOW LATER 


--5-3---------------------------- 
------5-4-3-1-------------------- 
--------------2-0---------------- 
------------------2-1-0---------- 
------------------------3-0------ 
---------------------------------
	  

Request the video "El Fantasma De Canterville"  -  Send "El Fantasma De Canterville" Ringtone to your Cell

there isn't a video lesson for this song

request
Full key step upFull key step up
Half key step upHalf key step up
Half key step downHalf key step down
Full key step downFull key step down
e-chords
Search
auto scroll beats size up size down change color hide chords drawings
tab show chords e-chords YouTube Clip e-chords hide all tabs e-chords go to top tab