Callejeros

home > Callejeros > chords

Creo Tab

Callejeros

Difficulty: BeginnerBeginner

by ali-almeida

tuner correct add songbook print version text version rtf version e-mail
chordsukulelecavacokeyboardtabbassdrumsharmonicsflute Guitar Pro
chords

Creo

(El Pato)

	  El bajo entra después de la ronda de la guitarra 

Intro 

G|---------------------------------------------------------------------- 
D|---5/17----17--16--14--12-----14--12----------------16--12------------ 
A|-----------------------------------------12--12----------------------- 
E|---------------------------------------------------------------------- 

1) 

 Creo que con una cancion la tristeza es mas hermosa 
G|---------------------------------------------------------------------- 
D|-17-----17--16--14--12---------17--12--11-----5-7-9-8-7-6------------- 
A|---------------------------------------------------------------------- 
E|---------------------------------------------------------------------- 

1) Creo que con una palabra puedo decir mil cosas 

2) 
    Pero no creo en el circo de la información,todo decanta en tu amor 
G|--------------------------------------------------------------------- 
D|--------9-------------9---11---12—------15~~--17---17--16--14--12x--- 
A|--------------------------------------------------------------------- 
E|--------------------------------------------------------------------- 

  Y en mi dolor 
G|--------------------------------------------------------------------- 
D|---------7x---------------------------------------------------------- 
A|--------------------------------------------------------------------- 
E|--------------------------------------------------------------------- 
Hasta el estribillo tiene la misma secuencia 


Estribillo 

  Creo en la vida en la noche en tu alma y no creo en todo lo demas 
G|---------------------------------------------------------------------- 
D|17x---------17--16--14--12x--------12--11--10-9x-----9--11-14-17x----- 
A|---------------------------------------------------------------------- 
E|---------------------------------------------------------------------- 
  Creo en tu estrella en aquella que busco en mi sueño mejor 
G|---------------------------------------------------------------------- 
D|-17—14--11---7x-----------7—11—14--17x------17--16--14-12x------------ 
A|---------------------------------------------------------------------- 
E|---------------------------------------------------------------------- 
 Para poder luchaaaaaaaaaaaaaaar 
G|---------------------------------------------------------------------- 
D|---12--11--9----7x—-17x—--12x----------------------------------------- 
A|---------------------------------------------------------------------- 
E|---------------------------------------------------------------------- 


ESTE ES EL ESTRIBILLO TRANSPORTADO A UNA ESCALA MAS GRAVE 

  Creo en la vida en la noche en tu alma y no creo en todo lo demas 
G|---------------------------------------------------------------------- 
D|---------------------------------------------------------------------- 
A|10x---------10-—9—--7--—5x---------5---4---3—-2x-----2--4--7--10x----- 
E|---------------------------------------------------------------------- 

  Creo en tu estrella en aquella que busco en mi sueño mejor 
G|---------------------------------------------------------------------- 
D|---------------------------------------------------------------------- 
A|-10---7---4---0x----------0--4--7—-10x-------10--9--7---5x------------ 
E|---------------------------------------------------------------------- 
   Para poder luchaaaaaaaaaaaaaaaaaar 
G|---------------------------------------------------------------------- 
D|---5—4----2-----0x----10x----5x--------------------------------------- 
A|---------------------------------------------------------------------- 
E|---------------------------------------------------------------------- 


Mantiene el RE un rato mas y después cambia a LA .. traste 7 … 
y puntua constante hasta que se queda callado.. 

Después viene la guitarra igual que al principio 
y cuando entra el bajo lo hace en LA 


El punteo es asi, tambien lo pueden transportar a mas grave… 

G|---------------------------------------------------------------------- 
D|--2----2-5-7-9----9-11-12-15----15-16-16-17---17----17-16-14-11------- 
A|---------------------------------------------------------------------- 
E|---------------------------------------------------------------------- 

Apenas termina el punteo empiza rapido a hacer lo de el verso 1) 


Al final cuando hace dos estribillos juntos,es lo mismo q en el anterior 
Pero mantiene el LA del final mas tiempo y vuelve a arrancar.. 

Cuando el tema termina hace un juego SOL-RE-MIm-RE.. 
Es decir, Después del ultimo Re hace en la misma cuerda.. 17-12-14-12 

Cualquier error que vean 
Agreguenme german_13mza@hotmail.com 

Aguante callejeros
	  

Request the video "Creo"  -  Send "Creo" Ringtone to your Cell

there isn't a video lesson for this song

request
Search
auto scroll beats size up size down change color hide chords drawings
tab show chords e-chords YouTube Clip e-chords hide all tabs e-chords go to top tab