Crosby, Stills, Nash & Young

home > Crosby, St... > chords

Woodstock Chords

Crosby, Stills, Nash & Young

Difficulty: ExpertExpert

by VsWorld

tuner correct add songbook print version text version rtf version e-mail
chordsukulelecavacokeyboardtabbassdrumsharmonicsflute Guitar Pro
chords

Woodstock

	  

Intro:

e|-------------------------|--------------------------------------| 
B|-------------3b----------|-------------3b-----------------------| 
G|---------3---3b----------|-------------3b--5b5b5b5b5r5r---3-----| 
D|--3h5-5-3--5----3-5-5-5--|-3-5--5-3-5-----------------------5---| 
A|-------------------------|--------------------------------------| 
E|-------------------------|--------------------------------------| 

 
 
e|------------------------------------------------| 
B|--------5b-3-5b-3-5b----------------------------| 
G|----3---5b-3-5b-3-5b-3-6-5-3--------------------| 
D|--5--------------------------5-3------------3-5-| 
A|----------------------------------5-3--3-5------| 
E|------------------------------------------------| 


VERSE:
 
 Gm 
Well I came upon a child of God 
G7      C                Csus4 
He was walking along the road 
                  C                    Csus4 
And I asked him, tell me where are you going? 
        Gm       
This he told me 
Gm 
Said I'm going down to Yasgur's Farm, 
G7     C                      Csus4 
Gonna join in a rock and roll band. 
        C              Csus4           Gm 
Got to get back to the land and set my soul free. 



tabchorus
C G We are stardust, we are golden C G We are billion year old carbon Bb F C G F And we've got to get ourselves back to the gaaar aaar den
tab
VERSE: Gm Well then, can I walk beside you? G7 C Csus4 I have come here to lose the smog, C Csus4 Gm And I feel as I'm a cog in something turning. Gm And maybe it's the time of year, G7 C Csus4 Yes, and maybe it's the time of man. C Csus4 Gm And I don't know who I am, but life is for learning.
tabchorus
C G We are stardust, we are golden C G We are billion year old carbon Bb F C G F And we've got to get ourselves back to the gaaar aaar den
tab
SOLO: Gm C Csus4 C Csus4
tabchorus
C G We are stardust, we are golden C G We are billion year old carbon Bb F C G F And we've got to get ourselves back to the gaaar aaar den
tab
VERSE: Gm By the time we got to Woodstock, G7 C Csus4 We were half a million strong C Csus4 Gm And everywhere was song and a celebration. Gm And I dreamed I saw the bombers, jet planes G7 C Csus4 Riding shotgun in the sky, C Csus4 Turning into butterflies Gm Above our nation.
tabchorus
C G We are stardust, we are golden C G We are caught in a devils bargain Bb F C G F And we've got to get ourselves back to the gaaar aaar den
tab

Request the video "Woodstock"  -  Send "Woodstock" Ringtone to your Cell

there isn't a video lesson for this song

request
Full key step upFull key step up
Half key step upHalf key step up
Half key step downHalf key step down
Full key step downFull key step down
Search
auto scroll beats size up size down change color hide chords simplify chords drawings columns
tab show chords e-chords YouTube Clip e-chords hide all tabs e-chords go to top tab