Dave Matthews Band

home > Dave Matth... > chords

Drive In Drive Out Bass Tab

Dave Matthews Band

Difficulty: nolevelnolevel

tuner correct add songbook print version text version rtf version e-mail
chordsukulelecavacokeyboardtabbassdrumsharmonicsflute Guitar Pro
chords

Drive In Drive Out

(Matthews)

	  
 
CD: Crash

Tabbed by: krbass Kyle Linder kylebassman2005@yahoo.com

Intro: at end of each guitar part
G:-----
D:-----
A:-----
E:3-3-5

Verse:
G:------------
D:5-4---------
A:---5-4h5-4--
E:-----------5

Chorus: with variation
G:------------------------5-7-5------
D:--------------------5h7-------7-5--
A:-----7-----5------7---------------7
E:5-5-5—3-3-3—5-5-5------------------

G:------------------------------
D:------------------------------
A:-----7-----5-----7------------
E:5-5-5-3-3-3-5-5-5-7-5-7-5/17-5 one right after the other 2x

2nd verse: different from the others
G:-----------------------
D:---------------7-5-----
A:--------7---7-----7p5--
E:3-3-5-5---5-----------5

1st little jam part: very quick
G:--------14------
D:-----------15-12
A:10-11-12--------
E:---------------- throw in a lot of slides

2nd jam part you really have to listen for the changes
G:5-4---------    G:-----------
D:---5-4h5-4--    D:5-4--------
A:-----------5    A:---5-4h5-4-
E:------------ 4x E:----------5 4x
Then just listen and keep going back and forth

End jam
G:---------------------------------------
D:--7---5-4-----------------------------7
A:-7---------7-5---3-2----5----5-----7---
E:5---------------------3----3-----5-----

Then go back into 2nd jam a little bit and back into end jam

Intro
Verse
Chorus
2nd verse
chorus
verse
chorus
1st jam
2nd jam
chorus
end jam
2nd jam
end jam

	  

Request the video "Drive In Drive Out"  -  Send "Drive In Drive Out" Ringtone to your Cell

there isn't a video lesson for this song

request
Search
auto scroll beats size up size down change color hide chords drawings
tab show chords e-chords YouTube Clip e-chords hide all tabs e-chords go to top tab