Westcoast Consortium

Scarlet River

Westcoast Consortium

ukulele

by  EDUCASTILHO

save to print version add songbook text version e-mail correct tuner
chordsukulelecavacokeyboardtabbassdrumsharmonicaflute Guitar Pro
close

there isn't a video lesson for this song

chords

Scarlet River

	  		 

Tuning: EADG 

0:12 

G|------------------------------------------------------------------------------------------------| 
D|3-----------------------1-----------------------------------------------------------------------| 
A|------------------------------------------------4-----------------------4-----------3-----------| 
E|------------------------------------------------------------------------------------------------| 

G|------------------------------------------------------------------------------------------------| 
D|------------------------------------------------------------------------------------------------| 
A|1-----------------------------------------------3-----------------------------------------------| 
E|------------------------3-----------------------------------------------3-----------------------| 

0:25 

G|------------------------------------------------------------------------------------------------| 
D|3-----------------------1-----------------------------------------------------------------------| 
A|------------------------------------------------4-----------------------4-----------3-----------| 
E|------------------------------------------------------------------------------------------------| 

G|------------------------------------------------------------------------------------------------| 
D|------------------------------------------------------------------------------------------------| 
A|1-----------------------------------------------3-----------------------3-----------------------| 
E|------------------------3-----------------------------------------------------------------------| 

0:38 

G|------------------------------------------------------------------------------------8-------7---| 
D|3-----------------------------------------------6-----------------------------------------------| 
A|------------------------3-----------------------------------------------6-----------------------| 
E|------------------------------------------------------------------------------------------------| 

G|------------------------------------------------------------------------------------------------| 
D|8-----------------------5-----------------------6-----------5-----------3-----------1-----------| 
A|------------------------------------------------------------------------------------------------| 
E|------------------------------------------------------------------------------------------------| 

0:50 

G|------------------------------------------------------------------------------------8-------7---| 
D|3-----------------------------------------------6-----------------------------------------------| 
A|------------------------3-----------------------------------------------6-----------------------| 
E|------------------------------------------------------------------------------------------------| 

G|------------------------------------------------------------------------------------------------| 
D|8-----------------------5-----------------------2-----------------------------------------------| 
A|------------------------------------------------------------------------3-----------------------| 
E|------------------------------------------------------------------------------------------------| 

1:03 

G|------------------------------------------------------------------------------------------------| 
D|3-----------------------1-----------------------------------------------------------------------| 
A|------------------------------------------------4-----------------------4-----------3-----------| 
E|------------------------------------------------------------------------------------------------| 

G|------------------------------------------------------------------------------------------------| 
D|--------------------------------------------------------------------------------------------2---| 
A|1-------------------------------------------2---3-----------------------------------3-----------| 
E|------------------------3-----------------------------------------------3-----------------------| 

1:15 

G|------------------------------------------------------------------------------------------------| 
D|3-----------------------1-----------------------------------------------------------------------| 
A|------------------------------------------------4-----------------------1-----------------------| 
E|------------------------------------------------------------------------------------------------| 

G|------------------------------------------------------------------------------------------------| 
D|------------------------------------------------------------------------------------------------| 
A|------------------------------------------------------------------------------------------------| 
E|1-----------------------------------------------------------------------------------------------| 

G|------------------------------------------------------------------------------------------------| 
D|------------------------------------------------------------------------------------------------| 
A|------------------------------------------------3-----------------------------------------------| 
E|------------------------------------------------------------------------------------------------| 

1:34 

G|------------------------------------------------------------------------------------8-------7---| 
D|3-----------------------------------------------6-----------------------------------------------| 
A|------------------------3-----------------------------------------------6-----------------------| 
E|------------------------------------------------------------------------------------------------| 

G|------------------------------------------------------------------------------------------------| 
D|8-----------------------5-----------------------6-----------5-----------3-----------1-----------| 
A|------------------------------------------------------------------------------------------------| 
E|------------------------------------------------------------------------------------------------| 

1:46 

G|------------------------------------------------------------------------------------8-------7---| 
D|3-----------------------------------------------6-----------------------------------------------| 
A|------------------------3-----------------------------------------------6-----------------------| 
E|------------------------------------------------------------------------------------------------| 

G|------------------------------------------------------------------------------------------------| 
D|8-----------------------5-----------------------2-----------------------------------------------| 
A|------------------------------------------------------------------------3-----------------------| 
E|------------------------------------------------------------------------------------------------| 

1:58 

G|------------------------------------------------------------------------------------------------| 
D|3-----------------------1-----------------------------------------------------------------------| 
A|------------------------------------------------4-----------------------4-----------3-----------| 
E|------------------------------------------------------------------------------------------------| 

G|------------------------------------------------------------------------------------------------| 
D|------------------------------------------------------------------------------------------------| 
A|1-----------------------------------------------3-----------------------------------------------| 
E|------------------------3-----------------------------------------------3-----------------------| 

2:11 

G|------------------------------------------------------------------------------------------------| 
D|3-----------------------1-----------------------------------------------------------------------| 
A|------------------------------------------------4-----------------------4-----------3-----------| 
E|------------------------------------------------------------------------------------------------| 

G|------------------------------------------------------------------------------------------------| 
D|--------------------------------------------------------------------------------------------2---| 
A|1-----------------------------------------------3-----------------------------------3-----------| 
E|------------------------3-----------------------------------------------3-----------------------| 

2:23 

G|----------------------------------------------------------------------------| 
D|3-------------------3---1-------------------1-------------------------------| 
A|------------------------------------------------4-------------------4---1---| 
E|----------------------------------------------------------------------------| 



2:39 

G|------------------------------------------------| 
D|------------------------------------------------| 
A|3-----------------------------------------------| 
E|------------------------------------------------| 

G|------------------------------------------------------------------------------------------------| 
D|3-----------------------1-----------------------------------------------------------------------| 
A|------------------------------------------------4-----------------------1-----------------------| 
E|------------------------------------------------------------------------------------------------| 

G|------------------------------------------------------------------------------------------------| 
D|------------------------------------------------------------------------------------------------| 
A|------------------------------------------------------------------------------------------------| 
E|------------------------1-----------4-----------------------------------4-----------------------| 

G|----------------------------------------------------------------| 
D|----------------------------------------------------------------| 
A|----------------------------------------------------3-----------| 
E|------------------------------------------------------------1---| 
		  
E-Chords has the most powerful ukulele chords dictionary on the internet. You can enter any chord and even choose the pitch of each string.

auto scroll beats size up size down change color
tab show chords e-chords YouTube Clip e-chords hide all tabs e-chords go to top tab

share