Their Theyre There

572 Cuthbert Blvd

Their Theyre There

ukulele nolevel nolevel

by  ANDRSOUZA

save to print version add songbook text version e-mail correct tuner
chordsukulelecavacokeyboardtabbassdrumsharmonicaflute Guitar Pro
close

there isn't a video lesson for this song

chords

572 Cuthbert Blvd

	  		

Intro/First verses 

(Part 1) 

e |---------------------------------------------------------------------------| 
A |---------------------------------------------------------------------------| 
F#|---0h1p0----------0-----0h1p0---------0---0h1p0---------0------------------| 
D |--------------0h2---2-------------0h2---------------0h2---2----------------| 
A |---------0h2------------------0h2---------------0h2------------------------| 
D |-0--------------------0-----------------0----------------------------------| 

e |------------------0--------| 
A |--0h2p0-----0h2h4---4-2p0--| 
F#|--------0h3----------------| 
D |---------------------------| 
A |---------------------------| 
D |---------------------------| 

(Part 2) 

e |---------------------------------------------------------------------------| 
A |---------------------------------------------------------------------------| 
F#|---0h1p0----------0-----0h1p0---------0---0h1p0---------0------------------| 
D |--------------0h2---2-------------0h2---------------0h2---0----------------| 
A |---------0h2------------------0h2---------------0h2------------------------| 
D |-0--------------------0-----------------0----------------------------------| 

e |------------------------------0--------------------------------------------| 
A |------------------------------5--------------------------------0-----------| 
F#|-------------------0--------0-----------------------0--------4---4---------| 
D |---------------0h2---0----5---------------------0h2---0----5---------------| 
A |-2/4-2-0------------------------0-2/4-2-0----------------------------------| 
D |-2/4-2-0-0h2h4---------/5-------0-2/4-2-0-0h2h4---------/5-----------------| 

Chorus 

e |-------------------------------0------------0------------------------------| 
A |-------0-----------0---------5---5--------5---5----------------------------| 
F#|-----1---1-------1---1------0------0----4-------4--------------------------| 
D |----4------4----4------4---0---------/5------------------------------------| 
A |---0-----------0---------2-------------------------------------------------| 
D |-0-----------2-------------------------------------------------------------| 

You kind of sweep the pick across the mid section of the chords in the Chorus. Listen to  
the song and 

hopefully you'll get what I mean. 

(repeating part of Chorus) 

e |-------0-----------0------| 
A |-----5---5-------5---5----| 
F#|---4-------4---4-------4--| 
D |-5-----------5------------| 
A |--------------------------| 
D |--------------------------| 

Ending chords 

e |--0-0--| 
A |--0-0--| 
F#|--1-1--| 
D |--4-4--| 
A |--0-0--| 
D |--0-0--|  
		  
E-Chords has the most powerful ukulele chords dictionary on the internet. You can enter any chord and even choose the pitch of each string.

See also:

chords Ira! - Envelheço na Cidade chords Deep Purple - Soldier Of Fortune chords Ira! - O Girassol chords Ike & Tina Turner - Proud Mary chords Ira! - Núcleo Base (ver. 2) chords Deep Purple - April
e-chords

Other versions:

ukulele Their Theyre There - 572 Cuthbert Blvd
auto scroll beats size up size down change color
tab show chords e-chords YouTube Clip e-chords hide all tabs e-chords go to top tab

share with facebook