Meg Myers

home > Meg Myers

Cold Ukulele tab

Meg Myers

Difficulty: BeginnerBeginner

by VsWorld

tuner correct add songbook print version text version save to e-mail
chordsukulelecavacokeyboardtabbassdrumsharmonicsflute Guitar Pro
chords

Cold

Key:  D More
Cold Key AA
Cold Key A#A#
Cold Key BB
Cold Key CC(one step down)
Cold Key C#C#(half step down)
Cold Key DD(original key)
Cold Key D#D#(half step up)
Cold Key EE(one step up)
Cold Key FF
Cold Key F#F#
Cold Key GG
Cold Key G#G#
  		

Tuning:Drop D 
Intro: 
e|-----------------------------------------------| 
B|-----------------------------------------------| 
G|------6----------------------0-----------------| 
D|---------------7---------------------3--3\7----| 
A|----7--------7------7------3-------3----3\7----| 
D|--7--------7------7------3-------3------3\7----| 

Coro: 
                                                                                       
e|------------------------------------------| 
B|------------------------------------------| 
G|------7-------7---------------------------| 
D|----------------------5-------3-----3-----| 
A|----5-------5-------3-------3-------3-----| 
D|--4-------4-------3-------3---------3-----| 


************************************ 

| /   slide up 
| \   slide down 
| h   hammer-on 
| p   pull-off 
| ~   vibrato 
| +   harmonic 
| x   Mute note 
| b   Bend 
| pb  Pre-bend 
| br  Bend release 
| pbr Pre-bend release 
| brb Bend release bend 

************************************ 
	  
E-Chords has the most powerful ukulele chords dictionary on the internet. You can enter any chord and even choose the pitch of each string.

Full key step upFull key step up
Half key step upHalf key step up
Half key step downHalf key step down
Full key step downFull key step down
Search Paypal
auto scroll beats size up size down change color
tab show chords e-chords YouTube Clip e-chords hide all tabs e-chords go to top tab