Led Zeppelin

home > Led Zeppelin

Immigrant Song Ukulele tab

Led Zeppelin

Difficulty: ExpertExpert

by Joey161

tuner correct add songbook print version text version save to e-mail
chordsukulelecavacokeyboardtabbassdrummharmonicsflute Guitar Pro
chords

Immigrant Song

Year: 1970 - Album: Mothership

  		Riff 1 
e|-----------------------------|------------------------------ 
B|-----------------------------|------------------------------ 
G|-----------------------------|------------------------------ 
D|--------4-------------4------|--------4-------------4------- 
A|-----------------------------|------------------------------ 
E|-2--2-2---2--2-2--2-2---2--2-|-2--2-2---2--2-2--2-2---2--2-- 

Riff 2 
e|-----------------------------|------------------------ 
B|-----------------------------|----------------------3- 
G|-----------------------------|----------------------3- 
D|--------4-------------4------|--------4-------------2- 
A|-----------------------------|----------------------3- 
E|-2--2-2---2--2-2--2-2---2--2-|-2--2-2---2--2-2--2-2--- 
                                                      C7/9 

Riff 2 
e|------------------- 
B|-----------------3- 
G|-----------------3- 
D|--------4--------2- 
A|-----------------3- 
E|-2--2-2---2--2-2--- 
                   C7/9 

Intro: Riff 1 
                                    
Ah, ah, 
A5     E5 
   We come from the land of the ice and snow, 
                                 E5    A5    (Riff 1) 
From the midnight sun where the hot springs flow. 


The hammer of the gods will drive our ships to new lands, 
To fight the horde, singing and crying:  

A5 E5                        E5 A5 (Riff 1) 
      Valhalla, I am coming! 


tabchorus
A5 B C On we sweep with threshing oar, Our only goal will be the western shore.
tab
(Riff 1) Ah, ah, A5 E5 We come from the land of the ice and snow, E5 A5 (Riff 1) From the midnight sun where the hot springs blow. How soft your fields so green, can whisper tales of gore, Of how we calmed the tides of war. A5 E5 E5 A5 (Riff 1) We are your overlords.
tabchorus
A5 B C On we sweep with threshing oar, Our only goal will be the western shore.
tab
(Riff 1) So now you'd better stop and rebuild all your ruins, (Riff 2) x4 For peace and trust can win the day despite of all your losing. (Riff 3) x7 e|----------------- B|----------------- G|----------------- D|--------4-------- A|----------------- E|-2--2-2---2--2-2-
E-Chords has the most powerful ukulele chords dictionary on the internet. You can enter any chord and even choose the pitch of each string.

Full key step upFull key step up
Half key step upHalf key step up
Half key step downHalf key step down
Full key step downFull key step down
Search Paypal
auto scroll beats size up size down change color
tab show chords e-chords YouTube Clip e-chords hide all tabs e-chords go to top tab