Airbag

home > Airbag

Colours Ukulele tab

Airbag

Difficulty: EasyEasy

by abelamin

tuner correct add songbook print version text version save to e-mail
chordsukulelecavacokeyboardtabbassdrumsharmonicsflute Guitar Pro
chords

Colours

Key:  Am More
Colours Key EmEm
Colours Key FmFm
Colours Key F#mF#m
Colours Key GmGm(one step down)
Colours Key G#mG#m(half step down)
Colours Key AmAm(original key)
Colours Key A#mA#m(half step up)
Colours Key BmBm(one step up)
Colours Key CmCm
Colours Key C#mC#m
Colours Key DmDm
Colours Key D#mD#m
  		
Intro: Am  C/G  F  Csus 

Am                            C/G 
It's time for you to fix me 
        F                  Csus 
 'Cause I can't breathe 
    Am                    G 
 It wasn't my intention 
               F            C 
 To let things go this far 

 Am             G 
 All the big ideas 

       F          C 
 I've kept inside 
   Am                          G       F 
I guess it doesn't mean that much to you 

Violão cordas de aço 1:  Am    G    F     F 

Guitarra clean 2 

Chorus   toque isso durante o Chorus 

hide this tabHide
tab
------0--------0--------0-------0------------- ----------------------------------1--------1-- ----5--------4--------2-------2----------2----X5 -7--------5--------3-------3-----------3------ ---------------------------------------------- ---------------------------------------------- --------5--------------3--------------1-------------1------ ------5---5----------3---3----------1---1---------1---1---- ----5-------5------4-------4------2-------2-----2-------2--X3 --7--------------5--------------3-------------3------------ ----------------------------------------------------------- -----------------------------------------------------------
tab
tabchorus
F Am G Don't you wanna hear F Don't you wanna see Am G F The colours in my head Am G F The colours in my head
tab
Am G F Solo: Am G F G X2 Solo
hide this tabHide
tab
------------------------s-------------------------------------- -----s----------15----13\12--------s--s------------------------ --12-\14-------x------------12---12\14\12----s--------p-------- ---------14---x----------------------------14\12-10-12-10------ --------------rake----------------------------------------12--- ---------------------------------------------------------------
tab
hide this tabHide
tab
-------------------- --------13------12-- ----s--------------- --12\14-----12------ -------------------- --------------------
tab
Am G No need to lose you hope now F G I owe you all you need Am G F G I'm out of function cold and scared inside
hide this tabHide
tab
-------------------- --------13------12-- ----s--------------- --12\14-----12------ -------------------- --------------------
tab
Am G This fairytale is almost complete F Like a million lies Am G F But I guess it doesn't mean that much to you teclado entra D F X2 D F G Chorus como acima Orgão entra *************** Guitar Solo: Am G F G (Mantem isso durante o solo) Guitar Solo Seção 1
hide this tabHide
tab
------------12--------------------10----------- ----10--10----10--10-------10--10----10--10---- --12--12--12----12--12---12--12--12----12--12--X2 ----------------------------------------------- ----------------------------------------------- -----------------------------------------------
tab
Seção 2
hide this tabHide
tab
----15--13--12--10-- -------------------- --12--12--12--12----X2 -------------------- -------------------- --------------------
tab
Seção 1 x1 Seção 2 x2 3x Seção 1 x1
hide this tabHide
tab
---b--br--------brbr---br--------12----12---12---- --13-13--13---12-----12---10---10--10----10---10-- -------------------------------------------------- -------------------------------------------------- -------------------------------------------------- --------------------------------------------------
tab
hide this tabHide
tab
---b-rb-----------12---------b------------12------------12--------12---- --13----13--13-15----12--10-12----10--10----10--10----10---10---10--12-- --------------------------------12--12--12----12----12--------12-------- ------------------------------------------------------------------------ ------------------------------------------------------------------------ ------------------------------------------------------------------------
tab
s b r
hide this tabHide
tab
---------------\15------------12--------------------b--b--------brbr-- --13---13-12----------10--10----10--10----10--10---13-13-13---12------ --------------------12--12--12----12----12--12------------------------ ---------------------------------------------------------------------- ---------------------------------------------------------------------- ----------------------------------------------------------------------
tab
ub ub ub
hide this tabHide
tab
----------------------1--1---------------- -------h------s-------1--1---10--10--10s-- --12--9-12--12\14-14--2--2---12--12--12\-- ----------------------3--3---------------- ----------------------3--3---------------- ----------------------1--1----------------
tab
hold hold
hide this tabHide
tab
---b-------------br----|---b-----------------12---------|-----15---------- --13--13--13---12------|--13--13--13---13-15----12------|--12----13-12---- -------------------14--|----------------------------14--|----------------- -----------------------|--------------------------------|----------------- -----------------------|--------------------------------|----------------- -----------------------|--------------------------------|-----------------
tab
hide this tabHide
tab
-----15--------|-----12--------------|------------------ --12----13-----|--------13-12-13-15--|-----12-13-12----- -----------14--|--14-----------------|--14----------14-- ---------------|---------------------|------------------ ---------------|---------------------|------------------ ---------------|---------------------|------------------
tab
hide this tabHide
tab
---b--b-------br----------------- --13-13--13--12----p------------- -----------------14-12-14----14-- --------------------------------- --------------------------------- ---------------------------------
tab
tabchorus
tab
E-Chords has the most powerful ukulele chords dictionary on the internet. You can enter any chord and even choose the pitch of each string.

Full key step upFull key step up
Half key step upHalf key step up
Half key step downHalf key step down
Full key step downFull key step down
Search Paypal
auto scroll beats size up size down change color
tab show chords e-chords YouTube Clip e-chords hide all tabs e-chords go to top tab