Zomboy

Mind Control

Zomboy

tabs

by  BOMBAXXX

save to print version add songbook text version e-mail correct tuner
chordsukulelecavacokeyboardtabbassdrumsharmonicaflute Guitar Pro
close

there isn't a video lesson for this song

chords

Mind Control

	  		

Tuning: standard 
  intro/Main riff 
e|---------------------------------------------------------------------------| 
B|---------------------------------------------------------------------------| 
G|---------------------------------------------------------------------------| 
D|------------------------------------------2--2-22--2-2-22-2----------------| 
A|-7-8-7----7-5-7-8-7----8-8-8-6-7-8-7--(0)-2--2-22--2-2-22-2----------------| 
E|------------------------------------------0--0-00--0-0-00-0----------------| 

e|---------------------------------------------------------------------------| 
B|---------------------------------------------------------------------------| 
G|---------------------------------------------------------------------------| 
D|------------------------------------------2--2-22--2-2-22-2--5-5-5-5-------| 
A|-7-8-7----7-5-7-8-7----8-8-8-6-7-8-7--(0)-2--2-22--2-2-22-2--5-5-5-5-------| 
E|------------------------------------------0--0-00--0-0-00-0--3-3-3-3-------| 
  second part 
e|---------------------------------------------------------------------------| 
B|---------------------------------------------------------------------------| 
G|---------------------------------------------------------------------------| 
D|-----9-10-9----9-7-9-10-9----10-7--------------2--2-22--2-2-22-2-----------| 
A|-7-8------------------------------8-7-8-7--(0)-2--2-22--2-2-22-2-----------| 
E|-----------------------------------------------0--0-00--0-0-00-0-----------| 

e|---------------------------------------------------------------------------| 
B|---------------------------------------------------------------------------| 
G|---------------------------------------------------------------------------| 
D|-----9-10-9----9-7-9-10-9----10~-7--------------2--2-22--2-2-22-2--5-5-5-5-| 
A|-7-8-------------------------------8-7-8-7--(0)-2--2-22--2-2-22-2--5-5-5-5-| 
E|------------------------------------------------0--0-00--0-0-00-0--3-3-3-3-| 
  Build up 
e|---------------------------------------------------------------------------| 
B|---------------------------------------------------------------------------| 
G|---------------------------------------------------------------------------| 
D|---------------------------------------------------------------------------| 
A|---------------------------------------------------------------------------| 
E|-3-5-3-5-3-5-3-5-3-5-3-5-3-5-3-5-33-55-33-55-3-5-3-5-3-5-3-5-3-5-3---------| 

e|--------xxxxxx--x\---------------------------------------------------------| 
B|--------xxxxxx--x\---------------------------------------------------------| 
G|-xxxxxx-999999--9\---------------------------------------------------------| 
D|-xxxxxx-xxxxxx--x\---------------------------------------------------------| 
A|-777777-777777--7\---------------------------------------------------------| 
E|-000000-000000--0\---------------------------------------------------------| 
  Drop 
e|---------------------------------------------------------------------------| 
B|---------------------------------------------------------------------------| 
G|---------------------------------------------------------------------------| 
D|---------------------------------------------------------------------------| 
A|-0/12\0---10-7-7---7-7-7--7-7-5-7-8---4/12\0---10-7-7---7-7-7-7----5---5---| 
E|-0/12\0-------------------------------4/12\0---------------------3---3-----| 

e|---------------------------------------------------------------------------| 
B|----------------------------------------------------------------8-7--------| 
G|-----------------------------------------------7------------9-7-----9-7----| 
D|-------------------------------------------7-9---9-7----7-9----------------| 
A|-0/12\0---10-7-7---7-7-7--7-7-5-7-8---7-10-----------10--------------------| 
E|-0/12\0--------------------------------------------------------------------| 

e|---------------------------------------------------------------------------| 
B|---------------------------------------------------------------------------| 
G|---------------------------------------------------------------------------| 
D|---------------------------------------------------------------------------| 
A|-0/12\0---10-7-7---7-7-7--7-7-5-7-8---4/12\0---10-7-7---7-7-7-7----5---5---| 
E|-0/12\0-------------------------------4/12\0---------------------3---3-----| 

e|---------------------------------------------------------------------------| 
B|------------------------------------------------------------its------------| 
G|[email protected]#$ing------| 
D|-------------------------------------------7-9---0-0-0-0-----------Zomboy--| 
A|-0/12\0---10-7-7---7-7-7--7-7-5-7-8---7-10---------------------------------| 
E|-0/12\0--------------------------------------------------------------------| 
  Drop pt.II 
e|---------------------------------------------------------------------------| 
B|---------------------------------------------------------------------------| 
G|---------------------------------------------------------------------------| 
D|--------0-000-0-0-0-00-0---------0-000-0-0-0-5-6---------------------------| 
A|--------0-000-0-0-0-00-0---------0-000-0-0-0-5-6---------------------------| 
E|-0/12\0-0-000-0-0-0-00-0--0/12\0-0-000-0-0-0-5-6---------------------------| 

e|---------------------------------------------------------------------------| 
B|---------------------------------------------------------------------------| 
G|---------------------------------------------------------------------------| 
D|--------0-000-0-0-0-00-0---------0-000--5--5--6----------------------------| 
A|--------0-000-0-0-0-00-0---------0-000--5--5--6----------------------------| 
E|-0/12\0-0-000-0-0-0-00-0--0/12\0-0-000--5--5--6----------------------------| 

e|-------------------------------------------------------------------------------| 
B|--------------8--------------------------8-------------------------------------| 
G|--------------7--------------------------7-------------------------------------| 
D|--------0-000-0-0-0-0-00-0---------0-000-0-0-0-0-5-6---------------------------| 
A|--------0-000-0-0-0-0-00-0---------0-000-0-0-0-0-5-6---------------------------| 
E|-0/12\0-0-000-0-0-0-0-00-0--0/12\0-0-000-0-0-0-0-5-6---------------------------| 

e|-------------------------------------------------------------------------------| 
B|--------------8--------------------------8--8--9-------------------------------| 
G|--------------7--------------------------7--7--8-------------------------------| 
D|--------0-000-0-0-0-0-00-0---------0-000-5--5--6-------------------------------| 
A|--------0-000-0-0-0-0-00-0---------0-000-5--5--6-------------------------------| 
E|-0/12\0-0-000-0-0-0-0-00-0--0/12\0-0-000-5--5--6-------------------------------| 
Second Drop 
e|-------------------------------------------------------------------------------------| 
B|-------------------------------------------------------------------------------------| 
G|-------------------------------------------------------------------------------------| 
D|-------------------------------------------------------------------------------------| 
A|-0/12\0--7-7-7-7-7-5-7---7-7-10-7-7-7-8-8-8--4/12\0--7-7-7-7-7-10-7------------5---5-| 
E|-0/12\0--------------------------------------4/12\0------------------8-8-10-7----3---| 

e|----------------------------------------------------------------------------------| 
B|-----------------------------------------------------------------------8-7--------| 
G|------------------------------------------------------7------------9-7-----9-7----| 
D|--------------------------------------------------7-9---9-7----7-9----------------| 
A|-0/12\0--7-7-7-7-7-5-7---7-7-10-7-7-7-8-8-8--7-10-----------10--------------------| 
E|-0/12\0---------------------------------------------------------------------------| 

e|---------------------------------------------------------------------------------------| 
B|---------------------------------------------------------------------------------------| 
G|---------------------------------------------------------------------------------------| 
D|---------------------------------------------------------------------------------------| 
A|-0/12\0--7-7-7-7-7-5-7---7-7-10-7-7-7-8-8-8--4/12\0--7-7-7-7-7-10-7------------5---5---| 
E|-0/12\0--------------------------------------4/12\0------------------8-8-10-7----3-----| 

e|-------------------------------------------------------------------------------| 
B|------------------------------------------------------------------The----------| 
G|-----------------------------------------------------7-7-7-7-7------Beat-------| 
D|-------------------------------------------------7-9---0-0-0-0--------don't----| 
A|-0/12\0--7-7-7-7-7-5-7---7-7-10-7-7-7-8-8-8-7-10------------------------Stop---| 
E|-0/12\0------------------------------------------------------------------------| 
  outro 
e|---------------------------------------------------------------------------| 
B|---------------------------------------------------------------------------| 
G|---------------------------------------------------------------------------| 
D|------9------9-----------7-----7----------5-----2--2-22--2-2-22-2----------| 
A|-7-10---7-10---7-10--5-9---5-9---5-9--3-7---(0)-2--2-22--2-2-22-2----------| 
E|------------------------------------------------0--0-00--0-0-00-0----------| 

e|---------------------------------------------------------------------------| 
B|---------------------------------------------------------------------------| 
G|---------------------------------------------------------------------------| 
D|------9------9-----------7-----7----------5-----2--2-22--2-2-22-2--5-5-5-5-| 
A|-7-10---7-10---7-10--5-9---5-9---5-9--3-7---(0)-2--2-22--2-2-22-2--5-5-5-5-| 
E|------------------------------------------------0--0-00--0-0-00-0--3-3-3-3-| 

e|---------------------------------------------------------------------------| 
B|---------------------------------------------------------------------------| 
G|---------------------------------------------------------------------------| 
D|------9------9-----------7-----7----------5-----2--2-22--2-2-22-2----------| 
A|-7-10---7-10---7-10--5-9---5-9---5-9--3-7---(0)-2--2-22--2-2-22-2----------| 
E|------------------------------------------------0--0-00--0-0-00-0----------| 

e|----------------------------------------------------------------x-x-x-x----| 
B|----------------------------------------------------------------x-x-x-x----| 
G|----------------------------------------------------------------9-9-9-9----| 
D|------9------9-----------7-----7----------5-----2--2-22--2-2-2--x-x-x-x----| 
A|-7-10---7-10---7-10--5-9---5-9---5-9--3-7---(0)-2--2-22--2-2-2--7-7-7-7----| 
E|------------------------------------------------0--0-00--0-0-0--0-0-0-0----| 

Intro/Main riff 
Second part 
Build up 
Drop 
Drop pt.II 
Intro/Main riff 
Second part 
Build up 
Second drop 
Drop Pt.II 
Outro 


************************************ 

| /   slide up 
| \   slide down 
| h   hammer-on 
| p   pull-off 
| ~   vibrato 
| +   harmonic 
| x   Mute note 
| b   Bend 
| pb  Pre-bend 
| br  Bend release 
| pbr Pre-bend release 
| brb Bend release bend 

************************************ 
		  

See also:

tabs Deep Purple - Strange kind of woman tabs Deep Purple - Smoke On The Water tabs Deep Purple - Time To Kill tabs Albert Hammond Jr - Gfc tabs Deep Purple - Soldier Of Fortune tabs Ira! - Nucleo De Base
e-chords

Other versions:

tabs In Harms Way - Mind Control tabs Zomboy - Mind Control
auto scroll beats size up size down change color hide chords drawings
tab show chords e-chords YouTube Clip e-chords hide all tabs e-chords go to top tab

share