Zero no Tsukaima

I Say Yes

Zero no Tsukaima

tabs Expert expert

by  ADALGOMES

save to print version add songbook text version e-mail correct tuner
chordsukulelecavacokeyboardtabbassdrumsharmonicaflute Guitar Pro
close

there isn't a video lesson for this song

chords

I Say Yes

	  		Introdução: 

 
E|--------------11--9----9--------------|--9-----------------------------------| 
B|--------------------------12--11--12--|-------------12--11----11--12--11--9--| 
G|------10--11--------------------------|-----11--11---------------------------| 
D|--13----------------------------------|--------------------------------------| 
A|--------------------------------------|--------------------------------------| 
E|--------------------------------------|--------------------------------------| 
 

 
E|----------9----------------9--|--------------------------------------| 
B|------11---------------11-----|------12--11--9------9----------------| 
G|--11-----------11--11---------|--11-------------11-------11--10--11--| 
D|------------------------------|--------------------------------------| 
A|------------------------------|--------------------------------------| 
E|------------------------------|--------------------------------------| 
 

 
E|-------------------|------------------------| 
B|-------------------|------------------------| 
G|--3------4------6--|--3------4------6----6--| 
D|--3------4------6--|--3------4------6----6--| 
A|--1------2------4--|--1------2------4----4--| 
E|-------------------|------------------------| 
 


Versos/Estrofes 

 
E|---------|---------| 
B|---------|---------| 
G|---------|---------| 
D|--5---5--|--8---8--| 
A|--5---5--|--8---8--| 
E|--3---3--|--6---6--| 
 


 
E|----------------------------------------|----------------------------------| 
B|----------------------------------------|----------------------------------| 
G|------------10--12--12--10------10--10--|--10--12--13--13--12--10--12------| 
D|--13----13------------------10----------|------------------------------13--| 
A|----------------------------------------|----------------------------------| 
E|----------------------------------------|----------------------------------| 
 


 
E|--------------------------------------|----------| 
B|--------------------------------------|----------| 
G|------10--12--12--10------10----------|--10--10--| 
D|--13------------------10------13--13--|----------| 
A|--------------------------------------|----------| 
E|--------------------------------------|----------| 
 


 
E|----------------------------------------|----------------------------------| 
B|----------------------------------------|----------------------------------| 
G|------------10--12--12--10------10--10--|--10--12--13--13--12--10--12------| 
D|--13----13------------------10----------|------------------------------13--| 
A|----------------------------------------|----------------------------------| 
E|----------------------------------------|----------------------------------| 
 



 
E|------------------------------------|----------------------| 
B|--------------11--------------------|----------------------| 
G|--------------------------------10--|--13--12--------------| 
D|--13--12--13------13--13----13------|----------13--12--13--| 
A|------------------------------------|----------------------| 
E|------------------------------------|----------------------| 
 


Pré-Refrão 


 
E|--------------------------------------------|--------------------------------------|------------------| 
B|--------------11--11----------------13--11--|--11----------------------------------|--------------11--| 
G|--------------------------------------------|------13--13--11--11--10------10--10--|--13--12--13------| 
D|--13--12--13------------13--12--13----------|--------------------------13----------|------------------| 
A|--------------------------------------------|--------------------------------------|------------------| 
E|--------------------------------------------|--------------------------------------|------------------| 
 


Refrão 


 
E|--------------11--9----9--------------|--9-----------------------------------| 
B|--------------------------12--11--12--|-------------12--11----11--12--11--9--| 
G|------10--11--------------------------|-----11--11---------------------------| 
D|--13----------------------------------|--------------------------------------| 
A|--------------------------------------|--------------------------------------| 
E|--------------------------------------|--------------------------------------| 
 


 
E|----------9----------------9--|-------------------------| 
B|------11---------------11-----|------12--11--9----------| 
G|--11-----------11--11---------|--11-------------11--11--| 
D|------------------------------|-------------------------| 
A|------------------------------|-------------------------| 
E|------------------------------|-------------------------| 
 



 
E|--------------11--9----9--------------|--9-----------------------------------| 
B|--------------------------12--11--12--|-------------12--11----11--12--11--9--| 
G|------10--11--------------------------|-----11--11---------------------------| 
D|--13----------------------------------|--------------------------------------| 
A|--------------------------------------|--------------------------------------| 
E|--------------------------------------|--------------------------------------| 
 




 
E|----------9----------------9--|---------------------------------| 
B|------11---------------11-----|------12--11--9------------------| 
G|--11-----------11--11---------|--11-----------------11--10--11--| 
D|------------------------------|---------------------------------| 
A|------------------------------|---------------------------------| 
E|------------------------------|---------------------------------| 
 



E|-------------------|------------------------14--| 
B|-------------------|--------------------14------| 
G|--3------4------6--|----------------11----------| 
D|--3------4------6--|--9---------11--------------| 
A|--1------2------4--|-----9--11------------------| 
E|-------------------|----------------------------| 
		  

See also:

tabs Deep Purple - Smoke on the water (ver. 3) tabs Albert Hammond Jr - Holiday tabs Deep Purple - When a Blind man cries tabs Deep Purple - The Unwritten Law tabs Deep Purple - Highway Star tabs Ira! - Núcleo Base ( Acústico MTV)
e-chords

Other versions:

tabs Zero no Tsukaima - I Say Yes
auto scroll beats size up size down change color hide chords drawings
tab show chords e-chords YouTube Clip e-chords hide all tabs e-chords go to top tab

share