Zelda

The Minish Cap - Introduction

Zelda

tabs Beginner beginner

by  VICTBORGES

save to print version add songbook text version e-mail correct tuner
chordsukulelecavacokeyboardtabbassdrumsharmonicaflute Guitar Pro
close

there isn't a video lesson for this song

chords

The Minish Cap - Introduction

	  		E |-----------------------------------------------| 
B |------1-0---------1-3-0-------1-0--------------| 
G |--2-------2-0-2---------0-2-------2-0----------| 
D |--------------------------------------2--------| 
A |-----------------------------------------------| 
E |-----------------------------------------------| 

E |----------------------3-----------------------| 
B |--1---1-3-0---1---1-3-----1---1-3-0-3-3-----2-| 
G |------------0---------------------------------| 
D |----------------------------------------------| 
A |----------------------------------------------| 
E |----------------------------------------------| 
		  

auto scroll beats size up size down change color hide chords drawings
tab show chords e-chords YouTube Clip e-chords hide all tabs e-chords go to top tab

share