Zelda

Canção Da Zelda

Zelda

tabs Advanced advanced

by  EMERGURJAO

save to print version add songbook text version e-mail correct tuner
chordsukulelecavacokeyboardtabbassdrumsharmonicaflute Guitar Pro
close

there isn't a video lesson for this song

chords

Canção Da Zelda

	  		1º parte 
E |--------------------------------------| 
B |-0-3--------0-3---0-3-10-8-3----------| 
G |-----2--0-2-----2------------5-4------| 
D |---------------------------------7----| 
A |--------------------------------------| 
E |--------------------------------------| 
2ºparte 
E |--------------------------------------------------------------------------------17-| 
B |-0-3---0-3---0-3-10-8-15--15-13-12-13-12-8-13-12-10-12-10-5-15-13-12-13-12-8-15----| 
G |-----2-----2-----------------------------------------------------------------------| 
D |-----------------------------------------------------------------------------------| 
A |-----------------------------------------------------------------------------------| 
E |-----------------------------------------------------------------------------------| 
		  

auto scroll beats size up size down change color hide chords drawings
tab show chords e-chords YouTube Clip e-chords hide all tabs e-chords go to top tab

share