Youth Lagoon

Afternoon

Youth Lagoon

tabs

by  HEBEALMEIDA

save to print version add songbook text version e-mail correct tuner
chordsukulelecavacokeyboardtabbassdrumsharmonicaflute Guitar Pro
close

there isn't a video lesson for this song

chords

Afternoon

	  		Tuning: Standard 

Intro Piano Part: (0:00 - 0:31) 

e|-------------------------------18------------------------------------------| 
B|------20---16-16--18-18----16----20--16-16---------------------------------| 
G|---------------------------------------------17-17-------------------------| 
D|---------------------------------------------------------------------------| 
A|---------------------------------------------------------------------------| 
E|---------------------------------------------------------------------------| 

e|---------------------------------------------------------------------------| 
B|------20---16-16--18-18---18-18-16------16----16----16-----(repeat x2)-----| 
G|-------------------------------------17------------------------------------| 
D|---------------------------------------------------------------------------| 
A|---------------------------------------------------------------------------| 
E|---------------------------------------------------------------------------| 

more piano: (0:31 - 0:48) 
e|---------------------------------------------------------------------------| 
B|------20--16--18-----------------------------------------------------------| 
G|---------------------------------------------------------------------------| 
D|---------------------------------------------------------------------------| 
A|---------------------------------------------------------------------------| 
E|---------------------------------------------------------------------------| 

Guitar Riff:  (0:48 - 1:12) 

e|---------------------------------------------------------------------------| 
B|---------------------------------------------------------------------------| 
G|------8-8-8-8-8--(strum)-----------(listen for timing and string emphasis)-| 
D|---------------------------------------------------------------------------| 
A|------6-6-6-6-6------------------------------------------------------------| 
E|---------------------------------------------------------------------------| 

Guitar Riff with Variation: (1:12- 1:44) 

e|---------------------------------------------------------------------------| 
B|---------------------------------------------------------------------------| 
G|----8-----8-----8-----8-----8-----8------------5-8-5-----------------------| 
D|--------------------------------------------/8-----------------------------| 
A|----6-----6-----6-----6-----6-----6----------------------------------------| 
E|---------------------------------------------------------------------------| 

then alternate between: 
e|---------------------------------------------------------------------------| 
B|---------------------------------------------------------------------------| 
G|-----8-----8-----8-----8-----8-----8---------------------------------------| 
D|-------------------------------------------------5-------------------------| 
A|-----6-----6-----6-----6-----6-----6-----------6--5------------------------| 
E|--------------------------------------------/8-----------(repeat x4)-------| 

back to (1:44 - 1:51) 
e|---------------------------------------------------------------------------| 
B|---------------------------------------------------------------------------| 
G|----8-----8-----8-----8-----8-----8-------(x13 total)----------------------| 
D|---------------------------------------------------------------------------| 
A|----6-----6-----6-----6-----6-----6----------------------------------------| 
E|---------------------------------------------------------------------------| 

then quickly strum: (1:51- 2:24) 
e|--------------------------------------------------------------------------| 
B|--------------------------------------------------------------------------| 
G|----88888888--------------------------------------------------------------| 
D|-----------------6666-----4444--------------------------------------------| 
A|----66666666--------------------------------------------------------------| 
E|-----------------4444-----2222--------------------------------------------| 

(2:40- 2:56) is a variation of the chords 

then: (2:56 - end) 
e|---------------------------------------------------------------------------------| 
B|------------8--------8-----------------------------------------------------------| 
G|-------8-------8--------8----8-(<< or a-------5-8-5------------------------------| 
D|---------------------------------variation)-8------------------------------------| 
A|----6----6--------6--------6-----------------------------------------------------| 
E|---------------------------------------------------------------------------------| 

e|---------------------------------------------------------------------------------| 
B|------------8--------8----------------------6------------------------------------| 
G|-------8-------8--------8-----8--------5-8----(on the 4th>>)-8888888-------------| 
D|-------------------------------------8-------------------------------------------| 
A|----6----6--------6--------6---------------------------------6666666--(end on)-6-| 
E|---------------------------------------------------------------------------------| 
 
		  

auto scroll beats size up size down change color hide chords drawings
tab show chords e-chords YouTube Clip e-chords hide all tabs e-chords go to top tab

share