Young The Giant

Art Exhibit

Young The Giant

tabs

by  JOAOEWERTON

save to print version add songbook text version e-mail correct tuner
chordsukulelecavacokeyboardtabbassdrumsharmonicaflute Guitar Pro
close

there isn't a video lesson for this song

chords

Art Exhibit

	  		
Intro 

Verse 

A|------3-----------3-----3-----------3--| 
E|---------0-----------------0-----------|   <-- This is the general picking pattern that plays 
A|------------0-----------------0--------|       throughout the piece. 
G|---0-----------0-----0-----------0-----| 


A|-----2-----------2-----2-----------2-----0-----------0-----0-----------0-----0-----------0--| 
E|--------0-----------------0-----------------0-----------------0-----------------2-----------| 
A|-----------2-----------------2-----------------1-----------------1-----------------3--------| 
G|--1-----------1-----1-----------1-----2-----------2-----2-----------2-----2-----------2-----| 


A|-----0-----------0-----3-----------3-----3-----------3-----2-----------2-----2-----------2--| 
E|--------2-----------------0-----------------0-----------------0-----------------0-----------| 
A|-----------3-----------------0-----------------0-----------------2-----------------2--------| 
G|--2-----------2-----0-----------0-----0-----------0-----1-----------1-----1-----------1-----| 


A|-----0-----------0-------0-----------0-----3-----------3-----3-----------|                               
E|--------1-------------------1-----------------1-----------------1--------|  
A|-----------0-------------------0-----------------0-----------------0-----| 
G|--2-----------2-------2-----------2-----1-----------1-----1-----------1--|(x2) 


Transition 

A|-----3-----------3-----3-----------3-----3-----------3-----3-----------3-----5-----------5--| 
E|--------1-----------------1-----------------1-----------------1-----------------3-----------| 
A|-----------2-----------------2-----------------3-----------------3-----------------5--------| 
G|--1-----------1-----1-----------1-----1-----------1-----1-----------1-----3-----------3-----| 


A|-----5-----------5--|  
E|--------3-----------|   
A|-----------5--------| 
G|--3-----------3-----|(x1) 


Bridge 

A|-----3-----------3-----3-----------3-----1-----------1-----1-----------1--| 
E|--------0-----------------0-----------------0-----------------0-----------| 
A|-----------0-----------------0-----------------0-----------------0--------| 
G|--0-----------0-----0-----------0-----0-----------0-----0-----------0-----| 


A|-----1-----------1-----1-----------1-----1-----------1-----1-----------1--| 
E|--------3-----------------3-----------------3-----------------3-----------|   
A|-----------2-----------------2-----------------2-----------------2--------| 
G|--3-----------3-----3-----------3-----3-----------3-----3-----------3-----|(x2) 


Transition to Chorus 

A|-----3-----------3-----3-----------3-----1-----------1-----1-----------1--| 
E|--------1-----------------1-----------------1-----------------1-----------| 
A|-----------0-----------------0-----------------1-----------------1--------| 
G|--1-----------1-----1-----------1-----0-----------0-----0-----------0-----| 


A|-----3-----------3-----3-----------3--| 
E|--------1-----------------1-----------|     
A|-----------0-----------------0--------| 
G|--1-----------1-----1-----------1-----|(x1)  

Chorus 

A|----1----3---- 
E|----1----3----    These chords repeat through the Chorus. 
A|----1----3----    You can either strum here, or pick like in the intro.  
G|----1----1----    Listen to the song for the strumming pattern.  

Transition out of Chorus 

A|----3----3----3----3----1---------1---- 
E|----1----1----1----1---------4----3---- 
A|----3----2----1----1--------------1----   The first two chords here are picked like the intro.  
G|----1----1----1----1--------------1---- 

verse 2 

A|----3----2----0----0----3----2----0----3---- 
E|----0----0----0----2----0----0----1----1----  
A|----0----2----1----3----0----2----0----0---- 
G|----0----1----2----2----0----1----2----1----  These are just the chords, listen to the song for  
                                                the pattern and chord changes. 
Transition 

A|----3----3----5---- 
E|----1----1----3---- 
A|----2----3----5---- 
G|----1----1----3----     Same chord changes and pattern as the verse here and going forward. 

Bridge 2 

A|----3----1----1----1---- 
E|----0----0----3----3---- 
A|----0----0----2----2---- 
G|----0----0----3----3----   

Transition to Chorus 

A|----3----1----3---- 
E|----1----1----1---- 
A|----0----1----0---- 
G|----1----0----1---- 

Chorus 2 

A|----1----3---- 
E|----1----3----    
A|----1----3----     
G|----1----1----     

Transition out of Chorus 

A|----3----3----3----3----1---------1---- 
E|----1----1----1----1---------4----3---- 
A|----3----2----1----1--------------1----   Hold on the final chord. 
G|----1----1----1----1--------------1---- 
		  

See also:

tabs Audioslave - Cochise tabs Red Hot Chili Peppers - Can't Stop (ver. 2) tabs Red Hot Chili Peppers - Suck My Kiss tabs Red Hot Chili Peppers - Californication tabs Incubus - Talk show on mute tabs Paramore - Misery Business (tablaturas)
e-chords

Other versions:

tabs Young The Giant - Art Exhibit
auto scroll beats size up size down change color hide chords drawings
tab show chords e-chords YouTube Clip e-chords hide all tabs e-chords go to top tab

share with facebook