Yoav

Blink

Yoav

tabs

by  LINEKERS

save to print version add songbook text version e-mail correct tuner
chordsukulelecavacokeyboardtabbassdrumsharmonicaflute Guitar Pro
close

there isn't a video lesson for this song

chords

Blink

	  		Stave 1: 

E|------------------------------------------------------------------------------------| 
B|-----5-------5-------7-------7-------3-------3-------5-------5-------1-------1------| 
G|---5---5---5---5---7---7---7---7---4---4---4-------5---5---5---5---2---2---2---2----| 
D|-7-------7-------7-------7-------5-------5-----3-5-------5-------3-------3-------3--| 
A|------------------------------------------------------------------------------------| 
D|------------------------------------------------------------------------------------| 

Stave 2: 

E|-----------------------------------------| 
B|-----3-------3---------------------------| 
G|---3---3---3---3-----1-------1---1---1---| 
D|-3-------3---------2---2---2---2---2---2-| 
A|-----------------------------------------| 
D|-----------------2-------0---------------| 

Stave 3: 

E|-----5-------5-------5-------5-------3-------3-------3-------3-------1-------1-----------| 
B|---5---5---5---5---7---7---7---7---3---3---3---3---5---5---5---5---1---1---1---1-----3---| 
G|-5-------5-------7-------7-------4-------4-------5-------5-------2-------2---------2---2-| 
D|---------------------------------------------------------------------------------3-------| 
A|-----------------------------------------------------------------------------------------| 
D|-----------------------------------------------------------------------------------------| 

Stave 4: 

E|---------------------------------| 
B|---------------------------------| 
G|-----1---1---1-------1---1---1---| 
D|---2---2---2---2---2---2---2---2-| 
A|---------------------------------| 
D|-2---------------0---------------| 

Stave 5: 

E|----------------------------------------------| 
B|----------------------------------------------| 
G|-----2-------2--------4---------2-----2-----4-| 
D|---3-------3--------5---------3-----3-----5---| 
A|----------------------------------------------| 
D|-3-------0--------5---------3-----0-----5-----| 

Stave 6: 

E|---5-5-7-7-8-8-10-12-----------------------------------------------------------| 
B|-----------------------5-5-6-6-8-8-10-10---1-1-3-3-5-5-5-5---------------------| 
G|-------------------------------------------------------------0-0-2-2---2-2-2-2-| 
D|-------------------------------------------------------------------------------| 
A|-0-------------------8-------------------3-------------------------------------| 
D|-----------------------------------------------------------5---------0---------| 

tabs by bird. you are welcome =) 
		  

See also:

tabs Deep Purple - Sail Away tabs Deep Purple - Pictures of Home tabs Deep Purple - Lazy tabs Deep Purple - Highway Star tabs Deep Purple - Deep Purple - Smoke On The Water tabs Deep Purple - Smoke On The Water (Intro + solo 01)
e-chords

Other versions:

tabs Yoav - Blink tabs Blink 182 - Blink 182 a tabs Tori Kelly - Blink Of An Eye Original
auto scroll beats size up size down change color hide chords drawings
tab show chords e-chords YouTube Clip e-chords hide all tabs e-chords go to top tab

share