Yngwie Malmsteen

home > Yngwie Malmsteen

Dragonfly Tab

Yngwie Malmsteen

Difficulty: nolevelnolevel

by Guirocknaveia

tuner correct add songbook print version text version save to e-mail
chordsukulelecavacokeyboardtabbassdrumsharmonicsflute Guitar Pro
chords

Dragonfly

  		 
D˙vidas fale com o Guilherme Breda Rezende ([email protected]). 
 
all bends in opening riff are 1/4 unless otherwise notated 
 
|-------------|------------------------------|-----------------------------| 
|-------------|------------------------------|-----------------------------| 
|-------------|------------------------------|-----------------------------| 
|-------------|---------5~------------5b-----|----------5------------------| 
|---x\--------|------------7--5---7------5-7-|------------7~------5--------| 
|---x\---10\--|-0-3bp0----------0---0--------|--0--3bp0-------6h7---0-3----| 
                  1/4 
 
|-----------------------------|----------------------------|---------------- 
|-----------------------------|----------------------------|---------------- 
|-----------------------------|----------------------------|---------------- 
|--------5-------------5b-----|-----------5----------------|--------5------- 
|----------7~--5---7------5-7-|-------------7~--2-1-0------|----------7~---- 
|-0-3bp0---------0---0--------|-0--0-3bp0-------------0-3~-|-0-3bp0--------- 
 
 
----------------|-------------------------|---------------------------------| 
----------------|-------------------------|---------------------------------| 
----------------|-------------------------|---------------------------------| 
---------5b-----|-------5-----------------|--------5----------------5b------| 
-5---7------5-7-|---------7~-----5--------|----------7~--5-----7--------5-7-| 
---0---0--------|0-3bp0------6h7---0--3~--|-0--3-5----------0-----0---------| 
 
 
|------------------------------|--------|----------------------------------| 
|------------------------------|--------|-5/15-----------------------------| 
|------------------------------|--------|----------------------------------| 
|------------------/9-8-7---5~-|--------|----------------------------------| 
|------------7~-\---------7----|--------|------------------------2---------| 
|-0--5--3bp0-------------------|--0~----|------------------------0----3----| 
 
 
 
               I'd rather live than just imagine  Don't thing there is 
               I guess I always will be searching I live and learn 
 
Verse 
|----------------------|-------------------|-------------------------------| 
|----------------------|-------------------|-------------------------------| 
|----------------------|-------------------|-------------------------------| 
|--2-------------------|-------------------|---2---------------------------| 
|--0----------2--------|-------------------|---0------------2--------------| 
|-------3~----0--------|-------------0--3--|---------3------0--------------| 
 
 
away around                  and if I fail I'll still be standin' 
from my mistakes             and all the love that I'm expecting 
 
|-------2------------|-----------------------------|------------------------| 
|-------3------------|-----------------------------|------------------------| 
|-------2------2-----|---2-------------------------|------------------------| 
|-------0------2-----|---2--------------2----------|------------------------| 
|--------------0-----|---0--------------2----------|-----------------0------| 
|--------------------|-----------3~-----0----------|-----------------0--3---| 
 
                                                          Pre-chorus 
            with my feet firmly on the ground        Through my window 
       is equal to the love I make                   Little dreamer when 
 
|----------------|---------------------|-----------------------------------| 
|----------------|---------------------|-----------------------------------| 
|--2-------------|---2----2------------|-----------------------------------| 
|--2--------2----|---0----2------------|------------------2----------------| 
|--0--------2----|---0----0------------|-4p2-4~-------2-4---4-2-4~-----2---| 
|------3~---0----|---------------------|--------0-2/4----------------------| 
 
 
from the sky  (flows a lullaby) 
evening falls (shadows fall) 
 
|------------------------------|-------------------------------| 
|------------------------------|-------------------------------| 
|------------------------------|-------------------------------| 
|------------------2-----------|------------------2------------| 
|-4p2-4~-------2-4---4-2-------|-4p2-4~-------2-4---4-2-4~----2| 
|--------0-2/4-----------3\2-0-|--------0-2/4------------------| 
 
 
Someone's waiting in my dreams,       
Bring some honey for my soul 
 
 
|------------------------------|------------------------------||------------ 
|------------------------------|------------------------------||------------ 
|------------------------------|------------------------------||------------ 
|------------------2-----------|------------------2-----------||------------ 
|-4p2-4~-------2-4---4-2-------|-4p2-4~-------2-4---4-2-------||------------ 
|--------0-2/4-----------3\2-0-|--------0-2/4-----------3\2-0-||------------ 
 
Takin me to places   I've never been 
Take me to the places that I've never been 
 
|-------------------------------|------------------------------|------------ 
|-------------------------------|------------------------------|------------ 
|-------------------------------|------------------------------|------------ 
|------------------2------------|------------------2-----------|------------ 
|-4p2-4~-------2-4---4-2-4~----2|-4p2-4~-------2-4---4-2-------|------------ 
|--------0-2/4------------------|--------0-2/4-----------3\2-0-|------------ 
 
 
If I had some wings then I could  
 
Chorus 
|------------------------------|-----------------------------|-------------- 
|------------------------------|-----------------------------|-------------- 
|------------------------------|-----------------------------|-------------- 
|---------5~------------5b-----|----------5------------------|-------------- 
|------------7--5---7------5-7-|------------7~------5--------|-------------- 
|-0-3bp0----------0---0--------|--0--3bp0-------6h7---0-3----|-------------- 
 
 
  fly 
 
|------------------------------|-----------------------------|-------------- 
|------------------------------|-----------------------------|-------------- 
|------------------------------|-----------------------------|-------------- 
|---------5~------------5b-----|-------------/9-8-7-----5~---|-------------- 
|------------7--5---7------5-7-|----------7~--------7--------|-------------- 
|-0-3bp0----------0---0--------|--0--3bp0--------------------|-------------- 
 
 
In my dreams I                   am the dragonfly 
 
|------------------------------|-------------------------------------------| 
|------------------------------|-------------------------------------------| 
|------------------------------|-------------------------------------------| 
|---------5~------------5b-----|--------5----------------------------------| 
|------------7--5---7------5-7-|----------7~-----5-------------------------| 
|-0-3bp0----------0---0--------|-0-3bp0------6h7---0-3~--------------------| 
 
 
|------------------------------|| 
|------------------------------|| 
|------------------------------|| 
|---------5~------------5b-----|| 
|------------7--5---7------5-7-|| 
|-0-3bp0----------0---0--------|| 
 
 
ending 1                                        1/2 
|-----------------------------|------------------------------------| 
|-----------------------------|----------15bf----------------------| 
|-----------------------------|----------------14b---14-12-14-12---| 
|-------------/9-8-7-----5~---|------------------------------------| 
|----------7~--------7--------|--2---------------------------------| 
|--0--3bp0--------------------|--0--0------------------------------| 
 
 
ending 2 
 
|-----------------------------------| 
|-----------------------------------| 
|-----------------------------------| 
|--------5--------------------------| 
|-----------7~--\2-1-0--------------| 
|-0-3bp0----------------0-3-2-1-0---| 
 
 
Guitar solo 
 
 
|-12h14~-------------4h5h7|p5p4---------------------------------------------| 
|----------------x--------|-----7p5p3p2h3h5p3p2p0---------------------------| 
|-------------------------|-----------------------1h2h4p2p1-----------------| 
|-------------------------|---------------------------------4p2p0-----------| 
|-------------------------|---------------------------------------4p2p0-----| 
|-------------------------|---------------------------------------------x-x-| 
 
                                            1 1/2 
|------------------------14-16-17--12---21-|-21b~--------------------------| 
|---------------------14-------------------|-------------0-----------------| 
|------------11-13-14----------------------|-------------0-----------------| 
|---------11-------------------------------|-----------------------16-16---| 
|-9-11-12----------------------------------|-------9/16--------------------| 
|------------------------------------------|----------------12\------------| 
 
 
                                              1/2 
|-------------------------17h19-21~-----14h16-16b--rb16-16b-rb16-16-17------ 
|----------------18-19-21------------14--------------------------------17--- 
|----16-18-19-21------------------------------------------------------------ 
|-19------------------------------------------------------------------------ 
|--------------------------------------------------------------------------- 
|--------------------------------------------------------------------------- 
 
 
--------16----------14-----------12----------------------|------------------ 
-----------14----------12-----------12-------15p14p12----|-14p12-------12--- 
-18\16--------16\14-------14\13--------14p12----------14-|-------14p13------ 
---------------------------------------------------------|------------------ 
---------------------------------------------------------|------------------ 
---------------------------------------------------------|------------------ 
 
 
---------------------------------------------|--------------------7h9h10p9p7 
-----------------12--------------------------|-------------7-9h10----------- 
--14p13p11h13h14----14bf------11-----11-11~--|-------6-8-9------------------ 
---------------------------------14----------|-6-7-9------------------------ 
---------------------------------------------|------------------------------ 
---------------------------------------------|------------------------------ 
 
 
----9p7---------------------------------------|--15----~----15h17---17b1/2--| 
-10-----10p9p7\6-------9p7p6---------------0--|--16bf-----------------------| 
-----------------9p7p6-------7p6-----6/11--0--|-----------------------------| 
---------------------------------9p6----------|-----------------------------| 
----------------------------------------------|-----------------------------| 
----------------------------------------------|-----------------------------| 
 
 
|-15----18p15~--18p15----17----17p13----13-15p13p11-------------|-11h13p11p10 
|----15---------------15----13-------11-13----------15p13p11\10-|----------- 
|---------------------------------------------------------------|----------- 
|---------------------------------------------------------------|----------- 
|---------------------------------------------------------------|----------- 
|---------------------------------------------------------------|----------- 
 
                                                   2 
------------------10h11p10p8---------------8------------------10/11--------| 
-13p11p10\8-10h11------------11p10p8h10h11---11-8-11b~--11-13--------------| 
---------------------------------------------------------------------------| 
---------------------------------------------------------------------------| 
---------------------------------------------------------------------------| 
---------------------------------------------------------------------------| 
 
 
|-h13h15p13p11-13p11-------------------------------------------------------| 
|--------------------15p13-15p13p11-13p11-11\10----------------------------| 
|-----------------------------------------------12p11h14-12p11-12~---------| 
|--------------------------------------------------------------------------| 
|--------------------------------------------------------------------------| 
|--------------------------------------------------------------------------| 
 
 
|------------------------9--11/12-12h14-11/12h14h16-t21p16/21~-------------| 
|------9h10p9----9h10h12---------------------------------------------------| 
|-9h11--------11-----------------------------------------------------------| 
|--------------------------------------------------------------------------| 
|--------------------------------------------------------------------------| 
|--------------------------------------------------------------------------| 
 
  1 1/2              1/2 
|--21b--------------|-21b--9--------------------------|---------------------| 
|-------------------|--------9------------------------|-----------------7/9-| 
|-------------------|----------11bf--rb11-11bf--rb11--|-9-11-11bf~-11bf~----| 
|-------------------|---------------------------------|---------------------| 
|-------------------|---------------------------------|---------------------| 
|-------------------|---------------------------------|---------------------| 
 
 
|-9-11-12-14-14/16p14p12\11h12-14p12p11----------11------------------------| 
|---------------------------------------14p12p10----14p12p10h12h14p12p10\9-| 
|--------------------------------------------------------------------------| 
|--------------------------------------------------------------------------| 
|--------------------------------------------------------------------------| 
|--------------------------------------------------------------------------| 
 
    1/4 
|---------------------------------------------------------------------------| 
|-9--------9------8/9-12p11----11p9----------9------------------------------| 
|---11bp9----11p9-----------12------12-11h12---12p11p9-8h9h11p9p8-----------| 
|-----------------------------------------------------------------11-6------| 
|----------------------------------------------------------------------9p7p6| 
|---------------------------------------------------------------------------| 
 
 
|---------------------------------------------------|---8bf~-----10bf~-----| 
|---------------------------------------------------|--11--------13--------| 
|---------------------6/8------8-9p8----8-----------|---7bf~------9bf~-----| 
|---------------6h7-9-----9h11-------11---11p9-9bf--|----------------------| 
|---7p6---6-7h9-------------------------------------|----------------------| 
|-9-----9-------------------------------------------|----------------------| 
 
 
|--12bf~-----14bf~------| 
|--15--------17---------| 
|--10bf~-----12bf~------| 
|-----------------------| 
|-----------------------| 
|-----------------------| 
 
w/delay single repeats 
 
|-/21-17-19-16-17-14-16-12-14-10-12-9-10-----9----|------------------------- 
|-----------------------------------------12---10-|-12-9-10-12-14-10-12-14-- 
|-------------------------------------------------|------------------------- 
|-------------------------------------------------|------------------------- 
|-------------------------------------------------|------------------------- 
|-------------------------------------------------|------------------------- 
 
                                                         1 1/2 delay off 
-------------------------|-------------16----16-16-17-19-21b---------------| 
-15-12-14-15-17-14-17-17-|-19-15-19-19----17-------------------------------| 
-------------------------|-------------------------------------------------| 
-------------------------|-------------------------------------------------| 
-------------------------|-------------------------------------------------| 
-------------------------|-------------------------------------------------| 
 
                    1 1/2               1/2 
|-21rb--17-16-17-12-21b----rb21~--17-16-19b--rb19p17-19bf-|-/21p17----19p16- 
|---------------------------------------------------------|--------19------- 
|---------------------------------------------------------|----------------- 
|---------------------------------------------------------|----------------- 
|---------------------------------------------------------|----------------- 
|---------------------------------------------------------|----------------- 
 
 
----17p14----x-16p12----16-14p10----14-12p9----12-10p7---10-|-9p5---9p7-4--- 
-19-------15---------12----------10---------10---------9----|-----7-------5- 
------------------------------------------------------------|--------------- 
------------------------------------------------------------|--------------- 
------------------------------------------------------------|--------------- 
------------------------------------------------------------|--------------- 
 
       1/2 
-7-5p2-4b--rb4-b4-rb4-2---2--------------|----------------------7-9-10h12--- 
------------------------5-2-5------------|-------------6/7-9-10------------- 
------------------------------5p4p2---4~-|-------6-7-9---------------------- 
------------------------------------4----|-6-7-9---------------------------- 
-----------------------------------------|---------------------------------- 
-----------------------------------------|---------------------------------- 
 
 
---------9-10----9-10-12-9h10-12-14-10-12h14-16-13-14-18p17-|-14----16p14--- 
-9-10-12------12--------------------------------------------|----17--------- 
------------------------------------------------------------|--------------- 
------------------------------------------------------------|--------------- 
------------------------------------------------------------|--------------- 
------------------------------------------------------------|--------------- 
 
 
-------14-------------14---------------------------------------------------| 
-17p14----17p14----14-------------------------------------------------14---| 
----------------16-------17p16p14----16p14--16bf~----------------14--------| 
----------------------------------16---------------------------------------| 
---------------------------------------------------------------------------| 
---------------------------------------------------------------------------| 
 
                                      1/2 
|-14-17p14----17/21-17----21\17p14----16b-rb16-16b~------14--------14-------| 
|----------14----------19----------14-----------------------17bf-------17bf-| 
|---------------------------------------------------------------------------| 
|---------------------------------------------------------------------------| 
|---------------------------------------------------------------------------| 
|---------------------------------------------------------------------------| 
 
 
|-14------------14-------------------------------------------|-------------- 
|----14------14----14----------------------------------------|-----0-------- 
|-------16bf----------17-16p14----16p14------------------0---|-0---0--13---- 
|------------------------------16-------16p14----------------|/16----------- 
|---------------------------------------------16p14bf~-------|-------------- 
|------------------------------------------------------------|-------------- 
 
 
-------------------17---------|--14h17-16--14h17-16~--14h17-16~--14h17-16~-- 
--------14-19bf--------19bf~--|--------------------------------------------- 
--14h16-----------------------|--------------------------------------------- 
------------------------------|--------------------------------------------- 
------------------------------|--------------------------------------------- 
------------------------------|--------------------------------------------- 
 
 
-14-16-16|h17p16p14----16p14-------14--------------------------------------| 
---------|----------17-------17p14-----------------------------------------| 
---------|-----------------------------17p16p14----16~\-----------6-7-9----| 
---------|--------------------------------------16----------6-7-9----------| 
---------|------------------------------------------------9----------------| 
---------|-----------------------------------------------------------------| 
 
 
|-----------7-9-10p9p7------------------------------|----------------------- 
|--6-7-9-10------------10-9p7\6---------------------|----------------------- 
|-------------------------------9p7p6---7-----------|----------------------- 
|-------------------------------------9---6-7-9-6---|-----6----------------- 
|-------------------------------------------------9-|-8-9---5-4~----4-5-7--- 
|---------------------------------------------------|----------------------- 
 
 
--------------------|------------------------------------------------------| 
--------------------|------------------------------------------------------| 
--------------------|---------9p7----7~---6---9--------------16\-----------| 
--4h6---4-6h8-6-----|--6-7-9------6---------9---9/11---------16\-----------| 
------8----------7--|------------------------------------------------------| 
--------------------|------------------------------------------------------| 
 
 
|---------------------------------------------------------------|-5h9------- 
|---------------------------------------------------------------|-----7----- 
|---------------------------------------------------7-6-9p7p6h7-|----------- 
|---------------6p4---6h7h9-------6h7h9p7p6---6h7h9-------------|----------- 
|-------4h5-5h7-----7-------6h7-9-----------9-------------------|----------- 
|-4-5-7---------------------------------------------------------|----------- 
 
 
-9h10p9p7----9p7------7-----------------------9-14p9--------------9h10h12p10| 
----------10-----10p9---10-9p7---9p7-------10--------10-7-9h10-12-----------| 
-------------------------------9-----10-11----------------------------------| 
----------------------------------------------------------------------------| 
----------------------------------------------------------------------------| 
----------------------------------------------------------------------------| 
 
 
|-p9h10----9h10p9-------9-------------------------|------------------------| 
|-------12--------12p10---12p10p9h12p10p9----10bf-|-rb10-------------------| 
|-----------------------------------------11------|-------11p9-------------| 
|-------------------------------------------------|------------11~-9/7-4/11| 
|-------------------------------------------------|------------------------| 
|-------------------------------------------------|------------------------| 
 
  1/2 
|---------------------|--------------------|-------------------------------- 
|---------------------|--------------------|-------------------------------- 
|---------------------|--------------------|-6-7-9p7p6---------------6-7-9-- 
|-11b--9----7bf--rb7--|-------7p6----6-7-9-|-----------9-7p6---6h7-9-------- 
|---------------------|-5-7-9-----9--------|-----------------9-------------- 
|---------------------|--------------------|-------------------------------- 
 
 
----------7-9-10--------7-9-10/12-|---------9-10-12/14p12h14-10h14-9h14----- 
-6-7-9-10--------7h9-10-----------|-9-10-12-----------------------------12-- 
----------------------------------|----------------------------------------- 
----------------------------------|----------------------------------------- 
----------------------------------|----------------------------------------- 
----------------------------------|----------------------------------------- 
 
 
-14------------9h10h12p10p9---------------9-14p9-------| 
----10p9h10h12--------------12\10p9----10--------10----| 
------------------------------------11--------------11-| 
-------------------------------------------------------| 
-------------------------------------------------------| 
-------------------------------------------------------| 
	  

Search Paypal
auto scroll beats size up size down change color hide chords drawings
tab show chords e-chords YouTube Clip e-chords hide all tabs e-chords go to top tab