Yeah Yeah Yeahs

Down Boy

Yeah Yeah Yeahs

tabs Beginner beginner

by  OLÍVIA MORAES

save to print version add songbook text version e-mail correct tuner
chordsukulelecavacokeyboardtabbassdrumsharmonicaflute Guitar Pro
close

there isn't a video lesson for this song

chords

Down Boy

	  		  
e|------------------------------------------------------------------------------------------------|
B|------------------------------------------------------------------------------------------------|  
G|----9--9-9-9-9-9--9-9-9-7-------9-9-9-9-9-----9-9-7------9-9-9-9-9------9-9-7----9--9-9-9-9-9---|  
D|----x--9-9-7-0-7--x-9-9-9-------9-9-7-0-7-----9-9-9------9-9-7-0-7------9-9-9----x--9-9-7-0-7---|  
A|--0-7-------------7----------7-------------7----------9--------------9---------0-7--------------|  
E|--0-0-------------0----------5-----0-------5----0-----7-----0--------7---------0-0--------------|  
  
e|-----------------------------------------------------------------------------------|   
B|-----------------------------------------------------------------------------------|  
G|----9--9-9-9-9-9--9-9-9-7-------9-9-9-9-9-----9-9-7------9-9-9-9-9------9-9-7------|  
D|----x--9-9-7-0-7--x-9-9-9-------9-9-7-0-7-----9-9-9------9-9-7-0-7------9-9-9------|  
A|--0-7-------------7----------7-------------7----------9--------------9-------------|  
E|--0-0-------------0----------5-----0-------5----0-----7-----0--------7-------------|  
  
  
e|------------------------------------------------------------------------------------------------|             
B|------------------------------------------------------------------------------------------------| 
G|----9--9-9-9-9-9--9-9-9-7-------9-9-9-9-9-----9-9-7------9-9-9-9-9------9-9-7-------9-9-9-9-7---| 
D|----x--9-9-7-0-7--x-9-9-9-------9-9-7-0-7-----9-9-9------9-9-7-0-7------9-9-9-------9-9-9-9-9---| 
A|--0-7-------------7----------7-------------7----------9--------------9-----------10-----------12|  
E|--0-0-------------0----------5-----0-------5----0-----7-----0--------7-----------8-----0------10|  
  
  
  
Fim de Refrão 
e|-------------------------------------------------------------|       
B|-------------------------------------------------------------|   
G|--------------------------------------9-9-0-9-0--9-9-0-9-----|   
D|---------0--12-0-----------0--12-0----x-x-0-x-0--x-x-0-x-----|   
A|--12-12--0--10-0----12-12--0--10-0----7-7-0-7-0--7-7-0-7-----|   
E|--10-10--0----------10-10--0---------------------------------|   
   


		  

See also:

tabs Red Hot Chili Peppers - Dani california (solo) tabs Red Hot Chili Peppers - Under The Bridge (ver. 2) tabs Red Hot Chili Peppers - Otherside (intro) tabs Incubus - Megalomaniac tabs Incubus - I Wish You Were Here tabs Good Charlotte - Lifestyles of the Rich and Famous
e-chords

Other versions:

tabs Yeah Yeah Yeahs - Down Boy
auto scroll beats size up size down change color hide chords drawings
tab show chords e-chords YouTube Clip e-chords hide all tabs e-chords go to top tab

share