X Japan

Tears

X Japan

tabs Expert expert

by  HIKARUDO2000

save to print version add songbook text version e-mail correct tuner
chordsukulelecavacokeyboardtabbassdrumsharmonicaflute Guitar Pro
close

there isn't a video lesson for this song

chords

Tears

Key:  G More
Tears Key DD
Tears Key D#D#
Tears Key EE
Tears Key FF(one step down)
Tears Key F#F#(half step down)
Tears Key GG(original key)
Tears Key G#G#(half step up)
Tears Key AA(one step up)
Tears Key A#A#
Tears Key BB
Tears Key CC
Tears Key C#C#
	  		E||--------2--------0-----0--|--------2-----5--------2--| 
B||-----3-----3--------------|-----2-----2--------------| 
G||--2-----------2-----1-----|--2-----------------2-----| 
D||--------------------------|--0--------------4--------| 
A||--2-----------4-----------|--------------------------| 
E||--------------------------|--------------------------| 
  
|--5-----------5-----4-----|--5----------------7----| 
|--3-----------5-----------|--7-----7----------9----| 
|--------2--------4-----4--|-----7-----7------------| 
|-----4-----4--------------|--0---------------------| 
|--2-----------4-----------|------------------------| 
|--------------------------|--------------0---------| 
  
|--9-----------------------7p5-|--7-----------------------| 
|--10-----10-----------10------|--9-----------------------| 
|------9------9-----9----------|--------9-----------9-----| 
|------------------------------|-----9-----9-----9-----9--| 
|--0-------------0-------------|--------------------------| 
|------------------------------|--0-----------0-----------| 
  
|--5--------2--4--2--4----|--5-----------------7----| 
|--------2----------------|--------7-----------7----| 
|-----2-------------------|-----6-----6-----6-------| 
|-------------------------|--0-----------0----------| 
|-------------------------|-------------------------| 
|--2-----------0----------|-------------------------| 
  
|--5--------------------4p2-|--4--------12*----------|| 
|--5-----5-----------5------|--5--------12*---2--0-2-|| 
|-----4-----4-----4---------|------------------------|| 
|---------------------------|------------------------|| 
|---------------------------|------------------------|| 
|--0-----------0------------|--0---------------------|| 



  Verso  
||-----------------0--2--4-5-|-------------------------| 
||---------------------------|-----2----------------2--| 
||--------2------------------|-------------------2-----| 
||-----2-----2---------------|----------------2--------| 
||--0------------------------|-------------------------| 
||--------------4------------|--2-------2--0-----------| 
  
|--2----2----0------------|--------------0-----------| 
|--2---------0--0--2--3-2-|--------------2----2--0-2-| 
|--2---------1------------|--------2-----------------| 
|--0---------0------------|-----2-----2--------------| 
|-------------------------|--0-----------------------| 
|-------------------------|--------------------------| 
  
|-----------------0--2--4--|--5--------7--5--------2--| 
|--------------------------|--------2-----------2-----| 
|--------2-----------------|-----2-----------2--------| 
|-----2-----2--------------|--------------------------| 
|--0-----------------------|--------------------------| 
|--------------4-----------|--2-----------0-----------| 
  
|--5----5----4--2--4----|--5----------------0----| 
|--7--------------------|--------3-----2----0----| 
|-----------------------|--------2-----2---------| 
|--0--------------------|-----2-----2------------| 
|-----------------------|--0-----------0---------| 
|------------0----------|-------------------4----| 
  
|--------5--4-5---4--2------|--------------------------| 
|-----2-----------------2-5-|--------------5-----------| 
|---------------------------|--------6-----------6-----| 
|---------------------------|-----6-----6-----6-----6--| 
|---------------------------|--4-----------------------| 
|--2------------------------|--------------------------| 
  
|-----2--2--0-2---2--2-0----|--------------0---------| 
|-----2---------------------|--0----------------0----| 
|-----2-------------------2-|--------1----------1----| 
|--0------------------------|-----2-----2------------| 
|---------------------------|------------------------| 
|---------------------------|--0----------------1----| 
  
|--------5--4-5---5--4--5--|--7---4---0----0--0--0-2-| 
|-----2--------------------|--5----------------------| 
|--------------------------|-------------------------| 
|--------------------------|-------------------------| 
|--------------------------|--4----------------------| 
|--2-----------------------|-------------------------| 
  
|-----------2--2----4--5-7-|--------------12*-------|| 
|--------2-----2-------7-9-|--------------12*-------|| 
|-----2--------2-----------|--------9---------------|| 
|--0-----------0-----------|-----9-----9------------|| 
|--------------------------|------------------------|| 


                                                   
||------------------------2---|--------------------------| 
||-----2--2--0-2----2--5----2-|--------------------------| 
||----------------------------|-----------2-----------1--| 
||----------------------------|--------4-----------2-----| 
||--0-------------------------|-----4-----------4--------| 
||---------------4------------|--2-----------0-----------| 
  
|---------------------------|---------------------0-----| 
|-----3--3--2-3----2--0-----|--2--------0-0----------3--| 
|------------------------2--|--------1------------------| 
|--0------------------------|-----2------------2--------| 
|---------------2-----------|---------------------------| 
|---------------------------|--0------------0-----------| 
  
|------------------------2---|--------------------------| 
|-----2--2--0-2----2--5----2-|--------------------------| 
|----------------------------|-----------2-----------1--| 
|----------------------------|--------4-----------2-----| 
|--0-------------------------|-----4-----------4--------| 
|---------------4------------|--2-----------0-----------| 
  
|---------------------0--2-4-|--------------5----4----|| 
|-----3--3--2-3----3---------|-----------0-------5----|| 
|----------------------------|--------1---------------|| 
|--0-------------------------|-----2------------------|| 
|---------------2------------|------------------------|| 
|----------------------------|--0---------------------|| 
  

||--5----------------4---5-|--------------5----4----| 
||--7-----7----------0---2-|--------2----------5----| 
||--6--6-----6-------------|-----2-----2------------| 
||--0----------------------|------------------------| 
||-------------------------|------------------------| 
||--------------0----------|--2---------------------| 
  
|--5----------------4---5-|--------------------------| 
|--7-----7----------5---3-|-----------3-----------5--| 
|--6--6-----6-------------|--------2-----------4-----| 
|--0----------------------|-----4-----------6--------| 
|-------------------------|--2-----------4-----------| 
|--------------0----------|--------------------------| 

|--------------5-----------|--5-----------5-----4-----| 
|-----------7-----------7--|--3-----------5-----------| 
|--------6-----------6-----|--------2--------4-----4--| 
|-----7-----------7--------|-----4-----4--------------| 
|--5-----------------------|--2-----------4-----------| 
|--------------------------|--------------------------| 
  
|--5-----------------5-----|--0-----0-----0-----0-----| 
|--7-----7--------7-----7--|--0-----0-----0-----0-----| 
|-----7-----7--6-----------|--2-----2-----2-----2-----| 
|--0-----------0-----------|-----2-----2-----2-----2--| 
|--------------------------|--------------------------| 
|--------------------------|--0-----------------------| 
  
|--0-----------12*----------|| 
|--0--------0--12*---2--0-2-|| 
|--1-----1------------------|| 
|-----2---------------------|| 
|---------------------------|| 
|--0------------------------|| 
  



Repita o verso que joga esta extremidade 
      --------------12*----------|| 
      --------------12*----------|| 
      --------9---------------1--|| 
      -----9-----9---------2-----|| 
      ------------------2--------|| 
      --0------------------------|| 



  
||--------------------------|-----0--0----0----0--3--5-0-| 
||--0-----0-----1-----3-----|-----1-----3----------------| 
||--0-----0-----2-----4-----|-----0----------------------| 
||-----0-----0-----0-----0--|----------------------------| 
||--------------------------|--3------------2------------| 
||--3-----------------------|----------------------------| 
  
|--------------------------|-----1--1--0-1----0--------| 
|-----------1-----------1--|-----1---------------3--1--| 
|--------2-----------0-----|-----2---------------------| 
|-----2-----------2--------|---------------0-----------| 
|--0-----------------------|---------------------------| 
|--------------3-----------|--1------------------------| 
  
|--0------------------------|-----0--0----0----0--3--5-0-| 
|--0--------3-3-------------|-----1-----3----------------| 
|---------------------0-----|-----0----------------------| 
|--------0---------------3--|----------------------------| 
|-----2------------2--------|--3------------2------------| 
|--3------------3-----------|----------------------------| 
  
|--------------------------|-----1--1--0-1----1--3--5--|| 
|-----------1-----------1--|-----1---------------------|| 
|--------2-----------0-----|-----2---------------------|| 
|-----2-----------2--------|---------------0-----------|| 
|--0-----------------------|---------------------------|| 
|--------------3-----------|--1------------------------|| 




||--7--------8----7----|--8--------------------------8--| 
||--8-------------8----|--10----------10--------12---10-| 
||--0------------------|----------10------------12------| 
||---------------------|------10------------------------| 
||---------------------|--8---------------10------------| 
||---------------------|--------------------------------| 
  
|----------------8-----------|--8--------------------------8--| 
|------------10--10----12----|--10----------10--------12---10-| 
|---------9------------12----|----------10------------12------| 
|-----10---------10----------|------10------------------------| 
|--0-------------------10----|--8---------------10------------| 
|----------------------------|--------------------------------| 
  
|----------------8-----------|--8--------------------------8--| 
|------------10--10----12----|--10----------10--------12---10-| 
|---------9------------12----|----------10------------12------| 
|-----10---------------------|------10------------------------| 
|--0-------------0-----10----|--8---------------10------------| 
|----------------------------|--------------------------------| 
  
|----------------8-----------|--8------------------| 
|------------10--10----12----|--10--------8--------| 
|---------9------------12----|---------------------| 
|-----10---------------------|---------------------| 
|--0-------------------10----|--8------------------| 
|----------------------------|---------------------| 
                                                           FIM. 
|--7--------1-------------|------1-------1---------------|---0- 
|--8--------1---------1---|--------1---1----1------------|---1-    //(^_^).... 
|-------------------2---2-|----2-----2---------2---------|---0- 
|-----------------3-------|--3--------------------3------|---2- 
|---------------3---------|------------------------------|---3- 
|-----------1-------------|------------------------------|-----
		  

See also:

tabs Mymp - At Your Best tabs Pillows - We Have a Theme Song tabs Mymp - Awit Ng Saya tabs Mymp - Sakay tabs Mymp - Tell Me Where It Hurts (intro) tabs Abingdon Boys School - Innocent Sorrow
e-chords

Other versions:

tabs Django Reinhardt - Tears tabs Dream Theater - Tears tabs Rufio - Tears tabs X Japan - Tears tabs Giorgio Moroder - Tears tabs LiL PEEP - Tears
auto scroll beats size up size down change color hide chords drawings
tab show chords e-chords YouTube Clip e-chords hide all tabs e-chords go to top tab

share