X Japan

Moonlight Sonata Tab

X Japan

Difficulty: IntermediateIntermediate

by Koinokawa

tuner correct add songbook print version text version save to e-mail
chordsukulelecavacokeyboardtabbassdrumsharmonicsflute Guitar Pro
close

there isn't a video lesson for this song

request
chords

Moonlight Sonata

  		Only about half the song 

-----0-------2- -----3-----3-----3-----3-----3-----3-----3-----3-- 
-----1-------0- ---5-----5-----5-----5-----5-----5-----5-----5---- 
--------------- -4-----4-----4-----4-----4-----4-----4-----4------ 
---2----------- -------------------------0------------------------ 
-----------2--- -------------------------------------------------- 
-0-------0----- -0------------------------------------------------ 
    2 

-----3-----3-----5-----5------5-----3-----2---7-5-7------------------------ 
---5-----5-----5-----5------4-----5-----5-----7-7-7---5---5---5---5---5---- 
-5-----5-----5-----5------4-----4-----4-------------4---4---4---4---4---4-- 
--------------------------------------------------------------------------- 
-3-----------3------------2------------------------------------------------ 
--------------------------------------------------0------------0----------- 

-8--7--5--3--2------3p2-3------0-2-3------3-2--3--5--- 
-8--8--7--5--3---3-----------------------------5--7--- 
---------------2------------0----------0-------------- 
----0--------0------------2----------2------0--------- 
------------------------3----------3------------------ 
------------------------------------------------------ 

 ~42sec 

-5-7-----7-5-3-5-7----5p3--5---2--3-5-3----------3------ 
---5-5-----------------------3-3---------------5-----5-- 
---------------------------------------------4-----4---- 
---------------------------0---0-----------5------------ 
---------------6---6------------------------------------ 
---0--0-------------------------------0----------------- 

-5-7-----7-5-3-5-7----5--3--5----2--3--5--3---- 
---5-5----------------3-----3--3----------5---- 
----------------------------------------------- 
----------------------------0-------------------- 
---------------6--6---------------------------- 
---0---0----------------------------------0---- 

---7-7-7-7-7---8--7---7--5--7---8--7--7-8-10---------8-7-5-7-------8-------7-- 
---8-8-8-8-8--10--8---8--7--8--10--8------10--10h12----------7---7---7---7-7-- 
------------------------------------------11-------------------8-------8---8-- 
----------------------------0------0-------0---------------------------------- 
-----------------------------------------------------0------------------------ 
-0---------0------0----------------------------------------------------------- 

-7--5--7---8--7---7--5--7---8--7--7h8--10-------8--7-5-7-------8-------7---- 
-8--7--8--10--8---8--7--8--10--8-------10-10h12----------7---7---7---7-7---- 
---------------------------------------11------------------8-------8---8---- 
------------------------0------0--------0----------------------------------- 
------------------------------------------------0--------------------------- 
-------0-------------------------------------------------------------------- 

-----------7-  
---------4---  
-------4-----  
-----4-------  
---6---------  
-7-----------  

---------7-5-7-------8-7-8-------12-10-12--------  
---------8-7-8-------8-8-8-------12-10-12--------  
-------------------------------------------------  
------------------------------------------------- 2 
-------------------------------------------------  
-0-0-0-0-----0-0-0-0-----0-0-0-0--------0-0-0-0--  

---------5-5-5-5-3-2-3-------------0---  
---------3-3-3-3-----3---------0-----0-  
---------------------------0-----0-----  
-------0-----------------2---2---------  
-----------------------3---------------  
-0-0-0---------------------------------  

---5-5-5-5-3-5-7---------------7-----7-7-7-7-7--5-3-5--7-7-----------  
---3-3-3-3---------------7---7-------8-8-8-8-8--7-5-7--8-8----7h8-10-  
-----------------------8---8-----------------------------------------  
-0-------------------9------------------------------0-------0--------  
-------------------9-------------------------------------------------  
-----------------7-----------------0---------------------------------  

---7-7-7-7-7-5-7-10-------------5-5-3-5-----0------3-5-7----------  
---8-8-8-8-8-7-8-10--12-10-12-------------1---1--------7----------  
-----------------11--------------------------------------------11-  
------------------0-------------------------------------------9---  
----------------------------------------3--------3----------9----- 
-0-------------------------------------------------------7--------  

----------------3-5-----------------  
-5---5-----5--5---4----4-------4----  
-5---5-----5------4--4---4---4---4--  
---5---5---5------4--------4--------  
---------3--------------------------  
------------------------------------ 
	  

Search Paypal
auto scroll beats size up size down change color hide chords drawings
tab show chords e-chords YouTube Clip e-chords hide all tabs e-chords go to top tab

share with facebook