Woven In Hiatus

Bedframe Tab

Woven In Hiatus

Difficulty: nolevelnolevel

by sabrjoao

tuner correct add songbook print version text version save to e-mail
chordsukulelecavacokeyboardtabbassdrumsharmonicsflute Guitar Pro
close

there isn't a video lesson for this song

request
chords

Bedframe

  		Intro 

e|--------------------------------| 
B|--------------------------------| 
G|--------2-------------5--2------| 
D|----3-----3---3---3--------3----| 
A|--5---5-----5---5---5-----------| 
E|--------------------------------| 

e|--------------------------------| 
B|--------------1-----------------| 
G|--------2-------2---------------| 
D|----3-----3-------3-------------| 
A|--1---1-----1-------------------| 
E|--------------------------------| 

e|--------------------------------| 
B|--------------------------------| 
G|--------2-------------5--2------| 
D|----3-----3---3---3--------3----| 
A|--5---5-----5---5---5-----------| 
E|--------------------------------| 

e|--------------------------------| 
B|--------------------1-----------| 
G|--------2-----3-----------------| 
D|----3-----3-----3---------------| 
A|--1---1-----1-----1-------------| 
E|--------------------------------| 


verse 1 

e|--------------------------------| 
B|--------------------------------| 
G|--------2-------------5--2------| 
D|----3-----3---3---3--------3----| 
A|--5---5-----5---5---5-----------| 
E|--------------------------------| 

e|--------------------------------| 
B|--------------3-----1-----------| 
G|--------2-----------------------| 
D|----3-----3-----3-----3---3-----| 
A|--1---1-----1-----1-----1-------| 
E|--------------------------------| 

e|--------------------------------| 
B|--------------------------------| 
G|--------2-------------5--2------| 
D|----3-----3---3---3--------3----| 
A|--5---5-----5---5---5-----------| 
E|--------------------------------| 

e|--------------------------------| 
B|--------------3-----1-----------| 
G|--------2-----------------------| 
D|----3-----3-----3---------------| 
A|--1---1-----1-----1-------------| 
E|--------------------------------| 

0:32 
e|------------------------------------------------| 
B|-----------10--------------------10-------------| 
G|------------------------------------------------| 
D|-----12--------12----12----12-------12----12----| 
A|--10----10--------10----10----10-------10-------| 
E|------------------------------------------------| 

e|------------------------------------------------| 
B|-----------13--------------------13-------------| 
G|------------------------------------------------| 
D|-----10--------10----10----10-------10----------| 
A|--12----12--------12----12----12-------12-------| 
E|------------------------------------------------| 

e|------------------------------------------------| 
B|-----------10--------------------10-------------| 
G|------------------------------------------------| 
D|-----12--------12----12----12-------12----12----| 
A|--10----10--------10----10----10-------10-------| 
E|------------------------------------------------| 

e|------------------------------------------------| 
B|-----------13--------------------13-------------| 
G|------------------------------------------------| 
D|-----10--------10----10----10-------10----------| 
A|--12----12--------12----12----12-------12-------| 
E|------------------------------------------------| 

e|------------------------------------| 
B|-----------10-----------------------| 
G|--------------------------12--------| 
D|-----12--------12----12---12--------| 
A|--10----10--------10------10--------| 
E|------------------------------------| 


Chorus (x2) 

e|-------------------------------| 
B|--------------1----------------| 
G|--------2-------2---2----------| 
D|----3-----3-------3---3--------| 
A|--3---3-----3------------------| 
E|-------------------------------| 

e|-------------------------------| 
B|--------------3-----1----------| 
G|--------2----------------------| 
D|----3-----3-----3-----3---3----| 
A|--1---1-----1-----1-----1------| 
E|-------------------------------| 

e|-------------------------------| 
B|----------------------1--------| 
G|--------2---------------2------| 
D|----3-----3---3---3-------3----| 
A|--3---3-----3---3---3----------| 
E|-------------------------------| 

e|-------------------------------| 
B|--------------------1----------| 
G|--------2-----3----------------| 
D|----3-----3-----3-----3---3----| 
A|--1---1-----1-----1-----1------| 
E|-------------------------------| 

1:21 
e|-------------------------------| 
B|-------------------------------| 
G|--------2-------------5--2-----| 
D|----3-----3---3---3--------3---| 
A|--5---5-----5---5---5----------| 
E|-------------------------------| 

e|-------------------------------| 
B|--------------1----------------| 
G|--------2-------2--------------| 
D|----3-----3-------3------------| 
A|--1---1-----1------------------| 
E|-------------------------------| 

e|-------------------------------| 
B|-------------------------------| 
G|--------2-------------5--2-----| 
D|----3-----3---3---3--------3---| 
A|--5---5-----5---5---5----------| 
E|-------------------------------| 

e|-------------------------------| 
B|--------------------1----------| 
G|--------2-----3----------------| 
D|----3-----3-----3--------------| 
A|--1---1-----1-----1------------| 
E|-------------------------------| 


verse 2 

e|-------------------------------| 
B|-------------------------------| 
G|--------2-------------5--2-----| 
D|----3-----3---3---3--------3---| 
A|--5---5-----5---5---5----------| 
E|-------------------------------| 

e|-------------------------------| 
B|--------------3-----1----------| 
G|--------2----------------------| 
D|----3-----3-----3-----3---3----| 
A|--1---1-----1-----1-----1------| 
E|-------------------------------| 

e|-------------------------------| 
B|-------------------------------| 
G|--------2-------------5--2-----| 
D|----3-----3---3---3--------3---| 
A|--5---5-----5---5---5----------| 
E|-------------------------------| 

e|-------------------------------| 
B|--------------3-----1----------| 
G|--------2----------------------| 
D|----3-----3-----3--------------| 
A|--1---1-----1-----1------------| 
E|-------------------------------| 

1:53 
e|------------------------------------------------| 
B|-----------10--------------------10-------------| 
G|------------------------------------------------| 
D|-----12--------12----12----12-------12----12----| 
A|--10----10--------10----10----10-------10-------| 
E|------------------------------------------------| 

e|------------------------------------------------| 
B|-----------13--------------------13-------------| 
G|------------------------------------------------| 
D|-----10--------10----10----10-------10----------| 
A|--12----12--------12----12----12-------12-------| 
E|------------------------------------------------| 

e|------------------------------------------------| 
B|-----------10--------------------10-------------| 
G|------------------------------------------------| 
D|-----12--------12----12----12-------12----12----| 
A|--10----10--------10----10----10-------10-------| 
E|------------------------------------------------| 

e|------------------------------------------------| 
B|-----------13--------------------13-------------| 
G|------------------------------------------------| 
D|-----10--------10----10----10-------10----------| 
A|--12----12--------12----12----12-------12-------| 
E|------------------------------------------------| 

e|------------------------------------| 
B|-----------10-----------------------| 
G|--------------------------12--------| 
D|-----12--------12----12---12--------| 
A|--10----10--------10------10--------| 
E|------------------------------------| 


Chorus (x2) 

e|-------------------------------| 
B|--------------1----------------| 
G|--------2-------2---2----------| 
D|----3-----3-------3---3--------| 
A|--3---3-----3------------------| 
E|-------------------------------| 

e|-------------------------------| 
B|--------------3-----1----------| 
G|--------2----------------------| 
D|----3-----3-----3-----3---3----| 
A|--1---1-----1-----1-----1------| 
E|-------------------------------| 

e|-------------------------------| 
B|----------------------1--------| 
G|--------2---------------2------| 
D|----3-----3---3---3-------3----| 
A|--3---3-----3---3---3----------| 
E|-------------------------------| 

e|-------------------------------| 
B|--------------------1----------| 
G|--------2-----3----------------| 
D|----3-----3-----3-----3---3----| 
A|--1---1-----1-----1-----1------| 
E|-------------------------------| 

2:43 
e|--------------------------------------------| 
B|-----------------------------------------1--| 
G|--------2-------------2-------------2----2--| 
D|----3-----3---3---3-----3---3---3--------3--| 
A|--5---5-----5---5---5-----5---5---5------3--| 
E|--------------------------------------------| 
	  

Search Paypal
auto scroll beats size up size down change color hide chords drawings
tab show chords e-chords YouTube Clip e-chords hide all tabs e-chords go to top tab

share with facebook