Wolf Alice

Were Not The Same

Wolf Alice

tabs

by  TERR_SCHMITZ

save to print version add songbook text version e-mail correct tuner
chordsukulelecavacokeyboardtabbassdrumsharmonicaflute Guitar Pro
close

there isn't a video lesson for this song

chords

Were Not The Same

	  		Intro/Verse/Chorus  
e|---------------------------------------------------------------------------| 
B|---------------------------------------------------------------------------| 
G|---------------------------------------------------------------------------| 
D|------6--------6b------6--------4---4-------4------------------------------| 
A|------4-----4----------4----------4---------4------------------------------| 
E|---5------0-2-------5------0-2---------0h2--2------------------------------| 

Guitar 2 (Ellie) Might be a Boss GT Multieffects Pedal not sure though 
e|---------------------------------------------------------------------------| 
B|-----12--14--10--7~-----12--14--15--/17~~----------------------------------| 
G|---------------------------------------------------------------------------| 
D|---------------------------------------------------------------------------| 
A|---------------------------------------------------------------------------| 
E|---------------------------------------------------------------------------| 

Use Distortion for last Chorus  

************************************ 

| /   slide up 
| \   slide down 
| h   hammer-on 
| p   pull-off 
| ~   vibrato 
| +   harmonic 
| x   Mute note 
| b   Bend 
| pb  Pre-bend 
| br  Bend release 
| pbr Pre-bend release 
| brb Bend release bend 

************************************ 
		  

auto scroll beats size up size down change color hide chords drawings
tab show chords e-chords YouTube Clip e-chords hide all tabs e-chords go to top tab

share