Wolf Alice

The Wonderwhy

Wolf Alice

tabs

by  AMAN_CLAUDINO

save to print version add songbook text version e-mail correct tuner
chordsukulelecavacokeyboardtabbassdrumsharmonicaflute Guitar Pro
close

there isn't a video lesson for this song

chords

The Wonderwhy

	  		
Intro: 

A|-2-2-2-4-4-4-4-4-5-5-5-5-5-5-5-5-2-2-2-4-4-4-4-4-5-5-5-5-5-5-5-5-----------| 
E|-3-3-3-3-3-3-3-3-3-3-3-3-3-3-3-3-3-3-3-3-3-3-3-3-3-3-3-3-3-3-3-3-----------| 


A|-10-10-10-9-9-9-12-12-7-7-9-9-5-5-5-5-2-2-2-4-4-4-4-4-5-5-5-5-5-5-5-5------| 
E|-8--8--8--8-8-8-8--8--5-5-5-5-3-3-3-3-3-3-3-3-3-3-3-3-3-3-3-3-3-3-3-3------| 

Verse: 

"what happens when we die? no don't ask questions, just make sure you survive" 

A|-2-2---2-2-2---2-2-2---2-2-2---2-2-2---2-2-2---2-2-2---2-2-2---------------| 
E|-3-3---3-3-3---3-3-3---3-3-3---3-3-3---3-3-3---3-3-3---3-3-3---------------| 

"now give me faith so I have boxes to take" 

A|-10-10-10-9-9-9-12-12-7-7-9-9-5-5-5-5---| 
E|-8--8--8--8-8-8-8--8--5-5-5-5-3-3-3-3---| 

"and we won't have to suffer the wonderwhy" 

A|-2-2---2-2-2---2-2-2---2-2-2---| 
E|-3-3---3-3-3---3-3-3---3-3-3---| 

"ahhh" (repeat intro) 

Verse: 

"the longer days when I don't give up, and all the lovers secrets pleasures" 

A|-2-2---2-2-2---2-2-2---2-2-2---2-2-2---2-2-2---2-2-2---2-2-2---------------| 
E|-3-3---3-3-3---3-3-3---3-3-3---3-3-3---3-3-3---3-3-3---3-3-3---------------| 

"and I found through and since I have the time" 

A|-10-10-10-9-9-9-12-12-7-7-9-9-5-5-5-5---| 
E|-8--8--8--8-8-8-8--8--5-5-5-5-3-3-3-3---| 

"i'm going with my things through this fire" 
A|-2-2---2-2-2---2-2-2---2-2-2---| 
E|-3-3---3-3-3---3-3-3---3-3-3---| 

"ahhh" (repeat intro) 


"don't leave me here when i'm not sold" 

A|-2-2-2-2-2-2-2-2-2-2-2---| 
E|-3-3-3-3-3-3-3-3-3-3-3---|    x2 

"don't leave me here when i'm not sold" 

A|-3-3-3-3-3-3-3-3-3-3-3---| 
E|-3-3-3-3-3-3-3-3-3-3-3---|    

"ohhh" 
(play a G chord during this part and keep adding 3rd finger onto the A string 3rd fret and only play towards 
the bottom strings) 

G 
"don't leave me here when i'm not sold" (x3) 

(repeat intro) 

(repeat G note (low E string 3rd fret) in triplets for the rest of the song) 

"Don't leave me here this place is for savage 
Shot to pieces back in the heaven 
Back in hell fire and running in the gate 
Starting a riot and plan an escape 
Babies growing up asking questions 
Looking for help for life and lessons 
Babies growing up life exposure 
Drinking the milk, Look under the bedroom 

don't leave me here when i'm not sold" 
		  

Full key step upFull key step up
Half key step upHalf key step up
Half key step downHalf key step down
Full key step downFull key step down
auto scroll beats size up size down change color hide chords drawings
tab show chords e-chords YouTube Clip e-chords hide all tabs e-chords go to top tab

share