Within Temptation

Skyfall

Within Temptation

tabs Advanced advanced

by  ROBEPOIEL

save to print version add songbook text version e-mail correct tuner
chordsukulelecavacokeyboardtabbassdrumsharmonicaflute Guitar Pro
close

there isn't a video lesson for this song

chords

Skyfall

	  		

James Bondish intro x2 
e|-----------------|-----------------|---------------|-----------------| 
B|-----------------|-----------------|---------------|-----------------| 
G|-4-----4-----4---|-5-----5-----5---|-6-----6---6---|-5-----5-----5---| 
D|-2-2-2-2-2-2-2-2-|-2-2-2-2-2-2-2-2-|-2-2-2-2-2-2-2-|-2-2-2-2-2-2-2-2-| 
A|-----------------|-----------------|---------------|-----------------| 
E|-----------------|-----------------|---------------|-----------------| 


Intro and chorus lead 
e|-----------------|-----------------|-----------------|-----------------| 
B|-----------------|-----------------|-----------------|-----------------| 
G|-------2---------|-------2-4-2-----|-------2---------|-------2-4-2-----| 
D|-2-4-5---5-4-2-4-|-2-4-5-------5-4-|-2-4-5---5-4-2-4-|-2-4-5-------5-4-| 
A|-----------------|-----------------|-----------------|-----------------| 
E|-----------------|-----------------|-----------------|-----------------| 
  
e|-----------------|-----------------|-----------------|-----------------| 
B|-----------------|-----------------|-----------------|-----------------| 
G|-5-4-2---5-4-2---|-5-4-2-------2-4-|-4-2-----4-2-----|-------2---------| 
D|-------5-------5-|-------5-4-5-----|-----5-4-----5-4-|-2-4-5---5-4-2-4-| 
A|-----------------|-----------------|-----------------|-----------------| 
E|-----------------|-----------------|-----------------|-----------------| 


Verse x3 muted 
e|-----------------|-----------------|-----------------|-----------------| 
B|-----------------|-----------------|-----------------|-----------------| 
G|-4-4-4-4-4-4-4-4-|-----------------|-----------------|-----------------| 
D|-2-2-2-2-2-2-2-2-|-5-5-5-5-5-5-5-5-|-2-2-2-2-2-2-2-2-|-2-2-2-2-2-2-2-2-| 
A|-----------------|-3-3-3-3-3-3-3-3-|-0-0-0-0-0-0-0-0-|-0-0-0-0-0-0-0-0-| 
E|-----------------|-----------------|-----------------|-----------------| 
   This is the      end                                  Hold your breath and 
   Count            to ten.                              Feel the earth 
   move a-          -gain                                Hear my heart 

e|-------------------|-----------------|-----------------|-----------------| 
B|-------------------|-----------------|-----------------|-----------------| 
G|-------------------|-----------------|-----------------|-----------------| 
D|-------------------|-----------------|-4-4-4-4-4-4-4-4-|-4-4-4-4-4-4-4-4-| 
A|-4-4-4-4-4-4-4-4-4-|-4-4-4-4-4-4-4-4-|-2-2-2-2-2-2-2-2-|-2-2-2-2-2-2-2-2-| 
E|-2-2-2-2-2-2-2-2-2-|-2-2-2-2-2-2-2-2-|-----------------|-----------------| 
   burst               a-                -gain 

Verse x3 
e|-----------------|-----------------|-----------------|-----------------| 
B|-----------------|-----------------|-----------------|-----------------| 
G|-----4-------4---|-----------------|-----------------|-----------------| 
D|-2-2-2-2-2-2-2-2-|-----5-------5---|-----2-------2---|-----2-------2---| 
A|-----------------|-3-3-3-3-3-3-3-3-|-0-0-0-0-0-0-0-0-|-0-0-0-0-0-0-0-0-| 
E|-----------------|-----------------|-----------------|-----------------| 
   For this is the  end.                                 I've drowned and dreamt this 
   mo-              -ment.                               So overdue I 
   owe              them.                                Swept away I'm 

e|-----------|-----------|-----------|-----------| 
B|-----------|-----------|-----------|-----------| 
G|-----------|-----------|-----------|-----------| 
D|-----------|-----------|-----4-3-4-|-----4 4\n-| 
A|-----4-3-4-|-----4-3-4-|-2-2-2-2-2-|-2-2-2 2\n-| 
E|-2-2-2-2-2-|-----2-2-2-|-----------|-----------| 
   sto-                    -len 



Chorus x2 
James bondish intro +  
Bond theme 
e|-----------------|-----------------------|-----------------|----------------------| 
B|-----------------|-----------------------|-----------------|----------------------| 
G|-----------------|-----------------------|-----------------|----------------------| 
D|-2-4-4-4-4-------|-2-2-2-2-5-5-5-5-4-4-4-|-2-4-4-4-4-------|-2-2-2-2-5-5-5-5-4-4-4| 
A|-----------------|-----------------------|-----------------|----------------------| 
E|-----------------|-----------------------|-----------------|----------------------| 


Bridge 
e|-----------------|-------------------------|-----------------|----------------------| 
B|-----------------|-------------------------|-----------------|----------------------| 
G|-----------------|-------------------------|-2---------------|-3--4-----------------| 
D|-2---------------|-4--5--------------------|-0---------------|-1--2-----------------| 
A|-0---------------|-2--3--------------------|-----------------|----------------------| 
E|-----------------|-------------------------|-----------------|----------------------| 
Where you go I go   What you see I see, I know I'd never be me   Without the security 

e|--------------------|---------------------------| 
B|--------------------|---------------------------| 
G|-2------------------|---------------------------| 
D|-0-5----------------|-4--2------------------2---| 
A|---3----------------|-2--0------------------0-2-| 
E|--------------------|-------------------------3-| 
Of your loving arms     Keeping me from harm 


e|-------------------|-----------------|-----------------|-----------------| 
B|-------------------|-----------------|-----------------|-----------------| 
G|-------------------|-----------------|-----------------|-----------------| 
D|-------------------|-----------------|-4-4-4-4-4-4-4-4-|-4-4-4-4-4-4-4-4-| 
A|-4-4-4-4-4-4-4-4-4-|-4-4-4-4-4-4-4-4-|-2-2-2-2-2-2-2-2-|-2-2-2-2-2-2-2-2-| 
E|-2-2-2-2-2-2-2-2-2-|-2-2-2-2-2-2-2-2-|-----------------|-----------------| 
Put your hand in my hand     And we'll   sta-               -and 

Chorus x2 
First half of chorus 
We will stand tall 
When it cr- 

Outro 
e|---------|--------|--------|---------|----------|--------|---------|--------| 
B|---------|--------|--------|---------|----------|--------|---------|--------| 
G|---------|--------|--------|---------|----------|--------|---------|--------| 
D|-2-------|--------|--------|---------|----------|--------|---------|--------| 
A|-0-------|------5-|-4------|---------|-4--------|--------|-2-------|--------| 
E|---------|------3-|-2------|---------|-2--------|--------|-0-------|--------| 
  -umble-      -e-              -e-                 -e-       -els At skyfall 

 
		  

See also:

tabs Heidevolk - Een Geldersch Lied
e-chords

Other versions:

tabs Within Temptation - Skyfall tabs Misc Soundtrack - Skyfall Teaser Trailer Music
auto scroll beats size up size down change color hide chords drawings
tab show chords e-chords YouTube Clip e-chords hide all tabs e-chords go to top tab

share