William Fitzsimmons

Sister

William Fitzsimmons

tabs

by  PAULLET3

save to print version add songbook text version e-mail correct tuner
chordsukulelecavacokeyboardtabbassdrumsharmonicaflute Guitar Pro
close

there isn't a video lesson for this song

chords

Sister

Key:  E More
Sister Key BB
Sister Key CC
Sister Key C#C#
Sister Key DD(one step down)
Sister Key D#D#(half step down)
Sister Key EE(original key)
Sister Key FF(half step up)
Sister Key F#F#(one step up)
Sister Key GG
Sister Key G#G#
Sister Key AA
Sister Key A#A#
	  		  


 


Verse //  
     F            Em          Bm x4            C             G             F x2  
D#--------------------------------------------------------------------------------------------------|  
B---------0--------------0----------0--------------------0-------------0---------0------------0-----|  
F#-------0--0-------(0)0----------------0------------0-------------0-----------------0------------0-|  
C#---3------------2---------------0---0------------0---0-------------0---------5---5--------5---5---|  
G#----------------------------2----------------3-----------------3---------------------3------------|  
E------------------------------------------------------------2-------------0------------------------|  


Chorus //  
1.  
      Bb x2                       F x2                          Am  
D#-----------------0----------------------------------------------------------------0---------------|  
B-----------0-----------0---------------0--------------0--------------0-------0h2---------2---0-----|  
F#--------------0-----------0---------------0--------------0--------------2-------------2---------2-|  
C#--------3---3-------3---3-----------5---5----------5---5----------2---2---------2---2-----2---2---|  
G#----1-----------------------------------------3---------------0-------------------------0---------|  
E---------------------------------0-----------------------------------------------------------------|  

        C x2  
D#----------------------------------------|  
B-------------0------------0--------------|  
F#---------------0-------------0----------|  
C#----------2--2----0h2--2---2------------|  
G#---2--3---------------------------------|  
E-----------------------------------------|  


2. (get some high D#'s in there once in a while)  
      Bb x2                       F x2                          Am  
D#-----------------0----------------------------------------------------------------0---------------|  
B-----------0-----------0---------------0--------------0--------------0-------0h2---------2---0-----|  
F#--------------0-----------0---------------0--------------0--------------2-------------2---------2-|  
C#--------3---3-------3---3-----------5---5----------5---5----------2---2---------2---2-----2---2---|  
G#----1-----------------------------------------3---------------0-------------------------0---------|  
E---------------------------------0-----------------------------------------------------------------|  

        C x2                         D x3            Em             F x4  
D#---------------------------------------------------------------------------------------|  
B-------------0------------0---------------0---------------0--------------0--------------|  
F#---------------0-------------0---------------0---------------0--------------0----------|  
C#----------2--2----0h2--2---2-----------3---3-----------5---5----------7---7------------|  
G#---2--3----------------------------5---------------7----------------8------------------|  
E-------------------------------------------------------------------0--------------------|  


Interlude / Hey  
      C x4           G x2                       D             Em            F x4  
D#----------------------------------------------------------------------------------------------|  
B--------------0--------------0-----------0----------0-------------0---0----------0-------------|  
F#---------0--------------0-----------0------------------0----------------------------0---------|  
C#-------2---2----------0---0-------0---0----------3---3---------5---5----------7---7-----------|  
G#----3-------------------------2---------------5-------------7---------------8-----------------|  
E--------------------2------------------------------------------------------0-------------------| 
		  

Full key step upFull key step up
Half key step upHalf key step up
Half key step downHalf key step down
Full key step downFull key step down
hide glossary

See also:

tabs Incubus - 11 A.M. tabs Alesana - Apology tabs Incubus - I Miss You tabs Red Hot Chili Peppers - Otherside (intro) tabs Incubus - Megalomaniac tabs Good Charlotte - Predictable
e-chords

Other versions:

tabs Creed - Sister tabs Lenny Kravitz - Sister tabs Sufjan Stevens - Sister tabs The Black Keys - Sister tabs William Fitzsimmons - Sister tabs Foo Fighters - Sister Europe
auto scroll beats size up size down change color hide chords drawings
tab show chords e-chords YouTube Clip e-chords hide all tabs e-chords go to top tab

share