White Stripes

Screwdriver (ver. 2) Tab

White Stripes

Difficulty: nolevelnolevel

tuner correct add songbook print version text version save to e-mail
chordsukulelecavacokeyboardtabbassdrumsharmonicsflute Guitar Pro
close

there isn't a video lesson for this song

request
chords

Screwdriver (ver. 2)

  		this tab was really hard to work out it sounds ok if u find n e probs wiv it thn feel free 
to correct thm. 
 
b = bend       ~ = let ring                      
                            INTRO                                             VERSE 
 
------------------------------------------|----------------------|------------------ 
------------------------------------------|----------------------|------------------ 
-------------------5-2-5-5-7b-7-5-7-5-----|----------------------|------------------ 
--5-5-5-5-5-3-3-5---------------------7---|-5-5-5-5-5-3-3-5-3-5~-|-3~-5~-3~--------- 
--7-7-7-7-7-5-5-7-------------------------|-7-7-7-7-7-5-5-7-5-7~-|-5~-7~-5~--------- 
--7-7-7-7-7-5-5-7-------------------------|-7-7-5-7-7-5-5-7-5-7~-|-5~-7~-5~--------- 
            x2 
 
Carry on th VERSE part to the end of the verse thn repeat the INTRO twice. 
 
-------------------------- 
-------------------------- 
---------7b-7b-7-5-7-5---- 
--5-5-5----------------7-- 
--7-7-7------------------- 
--7-7-7------------------- 
 
Thn just repeat the bits tht fit to the song its all here just arrange it. 
	  

Search Paypal
auto scroll beats size up size down change color hide chords drawings
tab show chords e-chords YouTube Clip e-chords hide all tabs e-chords go to top tab

share with facebook