White Stripes

Photograph (solo) Tab

White Stripes

Difficulty: nolevelnolevel

by weezer+pillows

tuner correct add songbook print version text version save to e-mail
chordsukulelecavacokeyboardtabbassdrumsharmonicsflute Guitar Pro
close

there isn't a video lesson for this song

request
chords

Photograph (solo)

  		Photograph 
 
v - vibrate (just wobble the note up and down) 
 
THE SOLO 
e|--------------------------------- 
b|--2--------------2--------------- 
d|-----2-2-2-2-2-2----2-2-2-2-2-2-- 
g|----2--------------2------------- 
a|--------------------------------- 
e|--------------------------------- 
 
e|--------------------------------------- 
b|--2------0-2-2-0-0-0-0----------------- 
g|-----2-2---------------2-2-2-2-2-2-2v-- 
d|----2---------------------------------- 
a|--------------------------------------- 
e|--------------------------------------- 
 
there ya go. 
 
REEEEALLY EASY.  

	  

Search Paypal
auto scroll beats size up size down change color hide chords drawings
tab show chords e-chords YouTube Clip e-chords hide all tabs e-chords go to top tab

share with facebook