White Stripes

Never Far Away Tab

White Stripes

Difficulty: nolevelnolevel

tuner correct add songbook print version text version save to e-mail
chordsukulelecavacokeyboardtabbassdrumsharmonicsflute Guitar Pro
close

there isn't a video lesson for this song

request
chords

Never Far Away

(Jack White)

  		Tabbed by: Jen
 
Tuning- standard (E, A, D, G, B, E) 
 
B A E  
||--2-------0-------------------------|| x 2 
||--4-------2-------------------------|| 
||--4-------2-------------------------|| 
||--4-------2-------------2-----------|| 
||--2---------------0 / 2-----2---0--|| 
||-------------------------------------|| 
 
G/E Fmaj7/E E 
||-----0-------0-------0?0?0?0?0---|| x 2 
||-----0-------0-------0?0?0?0?0---|| 
||-----4-------2-------1?1?1?1?1---|| 
||-----5-------3-------2?2?2?2?2---|| 
||-----5-------3-------2?2?2?2?2---|| 
||---------------------------------------------|| 
 
A/E G/E Fmaj7/E E 
||--0?0?0?0?0-----0?0?0?0?0-----0?0?0?0?0-----0?0?0?0?0--|| 
||--0?0?0?0?0-----0?0?0?0?0-----0?0?0?0?0-----0?0?0?0?0--|| 
||--6?6?6?6?6-----4?4?4?4?4-----2?2?2?2?2-----1?1?1?1?1--|| 
||--7?7?7?7?7-----5?5?5?5?5-----3?3?3?3?3-----2?2?2?2?2--|| 
||--7?7?7?7?7-----5?5?5?5?5-----3?3?3?3?3-----2?2?2?2?2--|| 
||--------------------------------------------------------------------------------------|| 
 
G/E Fmaj7/E E 
||-----0-------0-------0?0?0?0?0---|| x 1 
||-----0-------0-------0?0?0?0?0---|| 
||-----4-------2-------1?1?1?1?1---|| 
||-----5-------3-------2?2?2?2?2---|| 
||-----5-------3-------2?2?2?2?2---|| 
||---------------------------------------------|| 
 
B A E  
||--2-------0-------------------------|| x 2 
||--4-------2-------------------------|| 
||--4-------2-------------------------|| 
||--4-------2-------------2-----------|| 
||--2---------------0 / 2-----2---0--|| 
||-------------------------------------|| 
 
E 
||-----------------------|| x 4 
||-----------------------|| 
||-----------------------|| 
||---------2------------|| 
||--0 / 2-----2---0----||  
||-----------------------||  
 
Repeat all of the above three times then go into the chorus (below). 
 
E Fmaj7/E G/E A/E B/E D/E 
||--0------0------0------0------0------0----|| 
||--0------0------0------0------0------0----|| 
||--1------2------4------6------8-----11---|| 
||--2------3------5------7------9-----12---|| 
||--2------3------5------7------9-----12---|| 
||---------------------------------------------|| 
 
G C A E 
||---------------------------------------------------------------------------------------|| x 4 
||------------------------------1----------------------2---------------------0-------------|| 
||---------0-----------------------0----------------------2---------------------1----------|| 
||------------0-------------2---------2-----------2---------2-----------2----------2------|| 
||------2-------2-------3---------------3-----0----------------0----2----------------2---|| 
||--3--------------3------------------------------------------------------------------------|| 
 
E 
||-----------------------|| x 4 
||-----------------------|| 
||-----------------------|| 
||---------2------------|| 
||--0 / 2-----2---0----||  
||-----------------------||  
 
Now, Repeat the all of the above until you get to the final chorus. 
When the final chorus is complete play the below. 
 
B A 
||--2-------0---|| 
||--4-------2---|| 
||--4-------2---|| 
||--4-------2---|| 
||--2-----------|| 
||---------------|| 
 
 
 
E 
||-----------------------|| x 3 
||-----------------------|| 
||-----------------------|| 
||---------2------------|| 
||--0 / 2-----2---0----||  
||-----------------------||  
 
B A 
||--2-------0---|| 
||--4-------2---|| 
||--4-------2---|| 
||--4-------2---|| 
||--2-----------|| 
||---------------|| 
 
E 
||-----------------------|| x 3 
||-----------------------|| 
||-----------------------|| 
||---------2------------|| 
||--0 / 2-----2---0----||  
||-----------------------||  
 
B A 
||--2-------0---|| 
||--4-------2---|| 
||--4-------2---|| 
||--4-------2---|| 
||--2-----------|| 
||---------------|| 
 
E 
||-----------------------|| x 3 
||-----------------------|| 
||-----------------------|| 
||---------2------------|| 
||--0 / 2-----2---0----||  
||-----------------------||  
 
A 
||--0----|| 
||--2----|| 
||--2----|| 
||--2----|| 
||--0----|| 
||--0----|| 
 
That?s it. 
 
I must admit that my tab isn?t accurate, I have tried to mimic Jack?s sound as much as possible
 but this is the closest I can get it. If anyone spots some corrections to my tab, 
then I would be grateful if you could post them up or email them to me. 
Come on, give me some slack, this is only the second time I have attempted to tab something. 
 
Enjoy! 
 
Jen 
||| 
 
 
This song is from the Cold Mountain film.  It is performed by Jack White. 
	  

Full key step upFull key step up
Half key step upHalf key step up
Half key step downHalf key step down
Full key step downFull key step down
Search Paypal
auto scroll beats size up size down change color hide chords drawings
tab show chords e-chords YouTube Clip e-chords hide all tabs e-chords go to top tab

share with facebook