White Stripes

Little bird Tab

White Stripes

Difficulty: BeginnerBeginner

tuner correct add songbook print version text version save to e-mail
chordsukulelecavacokeyboardtabbassdrumsharmonicsflute Guitar Pro
close

there isn't a video lesson for this song

request
chords

Little bird

  		 
Open G Tuning 
D G D G B D 
 
  ------------------------------------------------------------------------------------------------ 
 | Tab Definitions:										  | 
 |  G: x000xx (with slide)									  | 
 | Bb: x333xx (with slide)									  | 
 |  C: x555xx (with slide)								     	  | 
 |  A: x222xx (with slide)								          | 
 |  F: xxxx22 											  | 
 |  D: x777xx (with slide)									  | 
 |F10: x|10|10|10|x|x (with slide)								  | 
 |G12: x|12|12|12|x|x (with slide)								  | 
 |B15: x|15|15|15|x|x (with slide)								  | 
 |A14: x|14|14|14|x|x (with slide)								  | 
 |  p: Pull off of note 									  | 
 |  /: Slide to note        						                          | 
 |  <: Increasing tempo                          						  | 
  ------------------------------------------------------------------------------------------------ 
 
  ----------------------------------------------------------------------------------------------- 
 | Riff Definitions:								                 | 
 | RIFF 1: P.M.								                         | 
 | G  Bb   C    Bb   Bb  A  G  F   								 | 
D|-----------------------------3--3-3--								 | 
B|-----------------------------3--3-3--								 | 
G|-0--3p0--5p0--3p0--3-/-2--0----------								 | 
D|-0--3p0--5p0--3p0--3-/-2--0----------								 | 
G|-0--3p0--5p0--3p0--3-/-2--0----------								 | 
D|-------------------------------------								 | 
 | RIFF 2:                          								 | 
D|--------------------										 | 
B|--------------------										 | 
G|-0-3-0-3/5-3-3/2-0--										 | 
D|--------------------										 | 
G|--------------------										 | 
D|--------------------										 | 
 | RIFF 3:										         | 
D|--------------------										 | 
B|--------------------										 | 
G|-0-3-0-3/5-5-3/2-0--										 | 
D|--------------------										 | 
G|--------------------										 | 
D|--------------------										 | 
 | RIFF 4:											 | 
D|--------------										 | 
B|--------------										 | 
G|-0-0-0-5/3-0--										 | 
D|-0-0-0-5/3-0--										 | 
G|-0-0-0-5/3-0--										 | 
D|--------------										 | 
  ----------------------------------------------------------------------------------------------- 
 
INTRO: 
Alright, 
 
RIFF 1: Played 4x 
 
VERSE 1: (Chords represent RIFF 1) 
G B5 C B5 B5 A   G     F 
               I got a little bird 
G B5 C B5 B5 A     G     F 
	       I'm gonna take her home  
G B5 C B5 B5 A   G       F 
	         Put her in a cage 
G B5 C B5 B5 A     G     F 
	       And disconnect the phone 
 
BREAK 1: 
D|-----------------------------------------------------------3--3--3-3----------------------------3--3-3- 
B|-----------------------5-----------------------------------3--3--3-3----------------------------3--3-3- 
G|-0--3p0--5p0--3p0-/5-5---5-5-5/3-0--7-10-7-5-0--5-3-7-3--0------------0--3p0--5p0--3p0--3/2--0--------- 
D|-0--3p0--5p0--3p0-/5-5-------5/3-0--7-10-7-5-0--5-3-7-3--0------------0--3p0--5p0--3p0--3/2--0--------- 
G|-0--3p0--5p0--3p0-/5-5-------5/3-0--7-10-7-5-0--5-3-7-3--0------------0--3p0--5p0--3p0--3/2--0--------- 
D|------------------------------------------------------------------------------------------------------- 
                                    Yeah! 
 
D|-------------------------------------------------------------------------------------------------------- 
B|-------------------------------------------------------------------------------------------------------- 
G|-3/5-0-3/2-0--0-3/2-0-3/5-0-3/2-0-3/2-0-3/2-0--3/2-0-3/5-0-3/2-0-3/2-0--3/5-5/3-3/2-0-3/2-0-3/2-0-3/5-0- 
D|-3/5-0-3/2-0--0-3/2-0-3/5-0-3/2-0-3/2-0-3/2-0--3/2-0-3/5-0-3/2-0-3/2-0--3/5-5/3-3/2-0-3/2-0-3/2-0-3/5-0- 
G|-3/5-0-3/2-0--0-3/2-0-3/5-0-3/2-0-3/2-0-3/2-0--3/2-0-3/5-0-3/2-0-3/2-0--3/5-5/3-3/2-0-3/2-0-3/2-0-3/5-0- 
D|-------------------------------------------------------------------------------------------------------- 
 
D|--------------------------------------------------------------------------------3--3--3-3-- 
B|-------------------------------------------5------------------------------------3--3--3-3-- 
G|-3/2-0--3/5-0-3/2-0-3/5-0-3/2-0-5/3-0--5-5---5-5-5/3-0--7-10-7-5-0--5-3-7-3--0------------- 
D|-3/2-0--3/5-0-3/2-0-3/5-0-3/2-0-5/3-0--5-5-------5/3-0--7-10-7-5-0--5-3-7-3--0------------- 
G|-3/2-0--3/5-0-3/2-0-3/5-0-3/2-0-5/3-0--5-5-------5/3-0--7-10-7-5-0--5-3-7-3--0------------- 
D|------------------------------------------------------------------------------------------- 
 
RIFF 1 
 
VERSE 2: 
If you give me a look  
I'm gonna get the book 
RIFF 2 
I'm gonna preach the word 
RIFF 3 
I wanna preach to birds 
RIFF 1 
As I walk the floor 
RIFF 1 
Yeah, this I know 
 
BREAK 2: 
D|-------------------------5---------------------------------3--3--3-3-------------------------------- 
B|---------------------------5-------------------------------3--3--3-3-------------------------------- 
G|-0--3p0--5p0--3p0-/5-5-5-----5/3-0--7-10-7-5-0--5-3-7-3--0------------0--3p0--5p0--3-3--3/2-0-3/2-0- 
D|-0--3p0--5p0--3p0-/5-5-------5/3-0--7-10-7-5-0--5-3-7-3--0------------0--3p0--5p0--3-3--3/2-0-3/2-0- 
G|-0--3p0--5p0--3p0-/5-5-------5/3-0--7-10-7-5-0--5-3-7-3--0------------0--3p0--5p0--3-3--3/2-0-3/2-0- 
D|---------------------------------------------------------------------------------------------------- 
 
D|------------------------------------------------------------------------------------------------ 
B|------------------------------------------------------------------------------------------------ 
G|-3-0--3/2-0--3/2-0-3/2-0--3/5-0-3/2-0--3/2-0-3/2-0--3-3-0-3/2-0-0-3/2-0-0-3/5-0-3/2-0-3-3/2-0-0- 
D|-3-0--3/2-0--3/2-0-3/2-0--3/5-0-3/2-0--3/2-0-3/2-0--3-3-0-3/2-0-0-3/2-0-0-3/5-0-3/2-0-3-3/2-0-0- 
G|-3-0--3/2-0--3/2-0-3/2-0--3/5-0-3/2-0--3/2-0-3/2-0--3-3-0-3/2-0-0-3/2-0-0-3/5-0-3/2-0-3-3/2-0-0- 
D|------------------------------------------------------------------------------------------------ 
 
D|------5------------------------------------ 
B|--------5---------------------------------- 
G|-/5-5-----5-5/3-0--7-10-7-5-0--5-3-7-3--0-- 
D|-/5-5-----5-5/3-0--7-10-7-5-0--5-3-7-3--0-- 
G|-/5-5-----5-5/3-0--7-10-7-5-0--5-3-7-3--0-- 
D|------------------------------------------- 
 
 
Played 2x: 
< 
F10/G12  F10  Bb15  A14  F10 
 
< 
F10/G12  F10  Bb  C 
 
D|-------------------------3--3--3-3-- 
B|-------------------------3--3--3-3-- 
G|-7-10-7-5-0--5-3-7-3--0------------- 
D|-7-10-7-5-0--5-3-7-3--0------------- 
G|-7-10-7-5-0--5-3-7-3--0------------- 
D|------------------------------------ 
 
RIFF 1: Played 3x 
 
VERSE 3: 
When I get you home 
RIFF 4 
This is how it goes 
RIFF 4 
I got nothing to lose 
RIFF 4 
I'll never let you go 
 
BREAK 3: 
D|-0-3-0-------5------------------------------------ 
B|---------------5---------------------------------- 
G|--------/5-5-----5-5/3-0--7-10-7-5-0--5-3-7-3--0-- 
D|--------/5-5-------5/3-0--7-10-7-5-0--5-3-7-3--0-- 
G|--------/5-5-------5/3-0--7-10-7-5-0--5-3-7-3--0-- 
D|-------------------------------------------------- 
 
D|-5-5--5-3-2-0------------0-- 
B|--------------3-3-3/5-6--0-- 
G|-------------------------0-- 
D|-------------------------0-- 
G|-------------------------0-- 
D|---------------------------- 
 
 
_______________________________________________________ 
Contribuição: Everson([email protected]) 

	  

Full key step upFull key step up
Half key step upHalf key step up
Half key step downHalf key step down
Full key step downFull key step down
Search Paypal
auto scroll beats size up size down change color hide chords drawings
tab show chords e-chords YouTube Clip e-chords hide all tabs e-chords go to top tab

share with facebook