White Stripes

John The Revelator Tab

White Stripes

Difficulty: nolevelnolevel

tuner correct add songbook print version text version save to e-mail
chordsukulelecavacokeyboardtabbassdrumsharmonicsflute Guitar Pro
close

there isn't a video lesson for this song

request
chords

John The Revelator

  		intro 
 
e-0-------------------------------------- 
B--0------------------------------------- 
G---0------------------------------------ 
D----0----------------------------------- 
A-----0---------------------------------- 
E------0-----0--0--7--7--6-6-6-6-5--3--0- 
 
riff 1 
 
e|-------------------------- 
B|-------------------------- 
G|-------------------------- (repeat as you need) 
D|-------------------------- 
A|----7--------------------- 
E|-0-----7--7--6-6-6-6-5--3- 
 
riff 2 
 
e|-------------------------- 
B|-------------------------- 
G|----5--------------------- (repeat as you need too) 
D|-2--5--5--5--4-4-4-4-3--1- 
A|-2--7--5--5--4-4-4-4-3--1- 
E|-0-----7--7--6-6-6-6-5--3- 
 
bridge 
 
e|--------------- 
B|--------------- 
G|--------------- 
D|-2--2--2------- 
A|-2--2--2------- 
E|-0--0--0------- 
 
then he sings alone with the drums but sometimes you can ear it doing this: 
 
E|-3--2--0------- 
 
after that he does the riff2 a second time, then he does a solo (i can' t figute it out) 
and thats it 
	  

Search Paypal
auto scroll beats size up size down change color hide chords drawings
tab show chords e-chords YouTube Clip e-chords hide all tabs e-chords go to top tab

share with facebook