White Stripes

Icky Thump (ver. 2) Tab

White Stripes

Difficulty: nolevelnolevel

by europeu

tuner correct add songbook print version text version save to e-mail
chordsukulelecavacokeyboardtabbassdrumsharmonicsflute Guitar Pro
close

there isn't a video lesson for this song

request
chords

Icky Thump (ver. 2)

  		Guitar I - (E A D G B E) 'Jack White' 


Intro/Verse:   Palm mutes are played in-time with the bass drum. 
e|----------------------|-----------------------| 
B|----------------------|-----------------------| 
G|----------------------|-----------------------| 
D|--2----2----2----2----|--2----2----2----2-5---| 
A|--2----2----2----2----|--2----2----2----2-5---| 
E|--0----0----0----0----|--0----0----0----0-3---| 


        P    P    P       P    P    P                   P    P    P         
----------------------|-----------------------|-----------------------| 
----------------------|-----------------------|-----------------------| 
----------------------|-----------------------|-----------------------| 
-2-----2----2----2----|--2----2----2----2-5---|--2-----2----2----2----| 
-2-----2----2----2----|--2----2----2----2-5---|--2-----2----2----2----| 
-0-----0----0----0----|--0----0----0----0-3---|--0-----0----0----0----| 


  P    P    P                   P    P    P       P    P    P              
-----------------------|-----------------------|-----------------------| 
-----------------------|-----------------------|-----------------------| 
-----------------------|-----------------------|-----------------------| 
--2----2----2----2-5---|--2-----2----2----2----|--2----2----2----2-5---| 
--2----2----2----2-5---|--2-----2----2----2----|--2----2----2----2-5---| 
--0----0----0----0-3---|--0-----0----0----0----|--0----0----0----0-3---| 


        P    P    P       P    P    P                   P    P    P          
-----------------------|-----------------------|-----------------------| 
-----------------------|-----------------------|-----------------------| 
-----------------------|-----------------------|-----------------------| 
--2-----2----2----2----|--2----2----2----2-5---|--2-----2----2----2----| 
--2-----2----2----2----|--2----2----2----2-5---|--2-----2----2----2----| 
--0-----0----0----0----|--0----0----0----0-3---|--0-----0----0----0----| 


  P    P    P                   P    P    P       P    P    P              
-----------------------|-----------------------|-----------------------| 
-----------------------|-----------------------|-----------------------| 
-----------------------|-----------------------|-----------------------| 
--2----2----2----2-5---|--2-----2----2----2----|--2----2----2----2-5---| 
--2----2----2----2-5---|--2-----2----2----2----|--2----2----2----2-5---| 
--0----0----0----0-3---|--0-----0----0----0----|--0----0----0----0-3---| 


       P    P    P       P    P    P                                         
-----------------------|-----------------------| 
-----------------------|-----------------------| 
-----------------------|-----------------------| 
--2-----2----2----2----|--2----2----2----2-5---| 
--2-----2----2----2----|--2----2----2----2-5---| 
--0-----0----0----0----|--0----0----0----0-3---| 



Chorus: 
|---------------------------| 
|---------------------------| 
|---------------------------| 
|--2--7--5-4-----------x-5--| 
|--2---------5-5--4-0--x-5--| 
|--0-------------------x-3--| 


    
----------------------------|----------------------------| 
----------------------------|----------------------------| 
--------------7--6----------|----------------------------| 
--2--7--5-4--------7--2-5---|--2--7--5-4-----------2-5---| 
--2---------5---------2-5---|--2---------5-5--4-0--2-5---| 
--0-------------------0-3---|--0-------------------0-3---| 

    
---------------------------|----------------------------| 
---------------------------|----------------------------| 
--------------7--9--7-9----|----------------------------| 
--2--7--5-4---7--9--7-9----|--2--7--5-4-----------x-5---| 
--2---------5-5--7--5-7----|--2---------5-5--4-0--x-5---| 
--0------------------------|--0-------------------x-3---| 


     
----------------------------|----------------------------| 
----------------------------|----------------------------| 
--------------7--6----------|----------------------------| 
--2--7--5-4--------7--2-5---|--2--7--5-4-----------2-5---| 
--2---------5---------2-5---|--2---------5-5--4-0--2-5---| 
--0-------------------0-3---|--0-------------------0-3---| 


  
---------------------------|-------------------|--------------------| 
---------------------------|-------------------|--------------------| 
--------------7--9--7-9----|-------------------|--------------------| 
--2--7--5-4---7--9--7-9----|--2----------------|--------------2-5---| 
--2---------5-5--7--5-7----|--2----------------|--------------2-5---| 
--0------------------------|--0----------------|--------------0-3---| 


Verse: 

        P    P    P       P    P    P                   P    P    P         
-----------------------|-----------------------|-----------------------| 
-----------------------|-----------------------|-----------------------| 
-----------------------|-----------------------|-----------------------| 
--2-----2----2----2----|--2----2----2----2-5---|--2-----2----2----2----| 
--2-----2----2----2----|--2----2----2----2-5---|--2-----2----2----2----| 
--0-----0----0----0----|--0----0----0----0-3---|--0-----0----0----0----| 


  P    P    P                   P    P    P       P    P    P               
-----------------------|-----------------------|-----------------------| 
-----------------------|-----------------------|-----------------------| 
-----------------------|-----------------------|-----------------------| 
--2----2----2----2-5---|--2-----2----2----2----|--2----2----2----2-5---| 
--2----2----2----2-5---|--2-----2----2----2----|--2----2----2----2-5---| 
--0----0----0----0-3---|--0-----0----0----0----|--0----0----0----0-3---| 


        P    P    P       P    P    P                   P    P    P      
-----------------------|-----------------------|-----------------------| 
-----------------------|-----------------------|-----------------------| 
-----------------------|-----------------------|-----------------------| 
--2-----2----2----2----|--2----2----2----2-5---|--2-----2----2----2----| 
--2-----2----2----2----|--2----2----2----2-5---|--2-----2----2----2----| 
--0-----0----0----0----|--0----0----0----0-3---|--0-----0----0----0----| 


  P    P    P                   P    P    P       P    P    P              
-----------------------|-----------------------|-----------------------| 
-----------------------|-----------------------|-----------------------| 
-----------------------|-----------------------|-----------------------| 
--2----2----2----2-5---|--2-----2----2----2----|--2----2----2----2-5---| 
--2----2----2----2-5---|--2-----2----2----2----|--2----2----2----2-5---| 
--0----0----0----0-3---|--0-----0----0----0----|--0----0----0----0-3---| 


Chorus:   
----------------------------|----------------------------| 
----------------------------|----------------------------| 
----------------------------|--------------7--6----------| 
--2--7--5-4-----------x-5---|--2--7--5-4--------7--2-5---| 
--2---------5-5--4-0--x-5---|--2---------5---------2-5---| 
--0-------------------x-3---|--0-------------------0-3---| 


     
----------------------------|---------------------------| 
----------------------------|---------------------------| 
----------------------------|--------------7--9--7-9----| 
--2--7--5-4-----------2-5---|--2--7--5-4---7--9--7-9----| 
--2---------5-5--4-0--2-5---|--2---------5-5--7--5-7----| 
--0-------------------0-3---|--0------------------------| 


    
----------------------------|----------------------------| 
----------------------------|----------------------------| 
----------------------------|--------------7--6----------| 
--2--7--5-4-----------x-5---|--2--7--5-4--------7--2-5---| 
--2---------5-5--4-0--x-5---|--2---------5---------2-5---| 
--0-------------------x-3---|--0-------------------0-3---| 


     
----------------------------|---------------------------| 
----------------------------|---------------------------| 
----------------------------|--------------7--9--7-9----| 
--2--7--5-4-----------2-5---|--2--7--5-4---7--9--7-9----| 
--2---------5-5--4-0--2-5---|--2---------5-5--7--5-7----| 
--0-------------------0-3---|--0------------------------| 


      
 Solo:  
--------------------------------------|------------------------------------| 
--------------------------------------|------------------------------------| 
--7--6----9--8----10--9-----12--11----|-7--6----9--8----10--9----12--11----| 
-------7-------9--------10---------12-|------7-------9--------10--------12-| 
--------------------------------------|------------------------------------| 
--------------------------------------|------------------------------------| 


        
   
--------------------------------------|------------------------------------| 
--------------------------------------|------------------------------------| 
--7--6----9--8----10--9-----12--11----|-7--6----9--8----10--9----12--11----| 
-------7-------9--------10---------12-|------7-------9--------10--------12-| 
--------------------------------------|------------------------------------| 
--------------------------------------|------------------------------------| 


Verse: 

        P    P    P       P    P    P                   P    P    P         
-----------------------|-----------------------|-----------------------| 
-----------------------|-----------------------|-----------------------| 
-----------------------|-----------------------|-----------------------| 
--2-----2----2----2----|--2----2----2----2-5---|--2-----2----2----2----| 
--2-----2----2----2----|--2----2----2----2-5---|--2-----2----2----2----| 
--0-----0----0----0----|--0----0----0----0-3---|--0-----0----0----0----| 


  P    P    P                   P    P    P       P    P    P              
-----------------------|-----------------------|-----------------------| 
-----------------------|-----------------------|-----------------------| 
-----------------------|-----------------------|-----------------------| 
--2----2----2----2-5---|--2-----2----2----2----|--2----2----2----2-5---| 
--2----2----2----2-5---|--2-----2----2----2----|--2----2----2----2-5---| 
--0----0----0----0-3---|--0-----0----0----0----|--0----0----0----0-3---| 


        P    P    P       P    P    P                   P    P    P          
-----------------------|-----------------------|-----------------------| 
-----------------------|-----------------------|-----------------------| 
-----------------------|-----------------------|-----------------------| 
--2-----2----2----2----|--2----2----2----2-5---|--2-----2----2----2----| 
--2-----2----2----2----|--2----2----2----2-5---|--2-----2----2----2----| 
--0-----0----0----0----|--0----0----0----0-3---|--0-----0----0----0----| 


  P    P    P                   P    P    P       P    P    P             
-----------------------|-----------------------|-----------------------| 
-----------------------|-----------------------|-----------------------| 
-----------------------|-----------------------|-----------------------| 
--2----2----2----2-5---|--2-----2----2----2----|--2----2----2----2-5---| 
--2----2----2----2-5---|--2-----2----2----2----|--2----2----2----2-5---| 
--0----0----0----0-3---|--0-----0----0----0----|--0----0----0----0-3---| 


       P    P    P       P    P    P                                         
-----------------------|-----------------------| 
-----------------------|-----------------------| 
-----------------------|-----------------------| 
--2-----2----2----2----|--2----2----2----2-5---| 
--2-----2----2----2----|--2----2----2----2-5---| 
--0-----0----0----0----|--0----0----0----0-3---| 



Chorus: 
|---------------------------| 
|---------------------------| 
|---------------------------| 
|--2--7--5-4-----------x-5--| 
|--2---------5-5--4-0--x-5--| 
|--0-------------------x-3--| 

     
----------------------------|----------------------------| 
----------------------------|----------------------------| 
--------------7--6----------|----------------------------| 
--2--7--5-4--------7--2-5---|--2--7--5-4-----------2-5---| 
--2---------5---------2-5---|--2---------5-5--4-0--2-5---| 
--0-------------------0-3---|--0-------------------0-3---| 


    
---------------------------|----------------------------| 
---------------------------|----------------------------| 
--------------7--9--7-9----|----------------------------| 
--2--7--5-4---7--9--7-9----|--2--7--5-4-----------x-5---| 
--2---------5-5--7--5-7----|--2---------5-5--4-0--x-5---| 
--0------------------------|--0-------------------x-3---| 


   
----------------------------|----------------------------| 
----------------------------|----------------------------| 
--------------7--6----------|----------------------------| 
--2--7--5-4--------7--2-5---|--2--7--5-4-----------2-5---| 
--2---------5---------2-5---|--2---------5-5--4-0--2-5---| 
--0-------------------0-3---|--0-------------------0-3---| 


  
---------------------------|-------------------|--------------------| 
---------------------------|-------------------|--------------------| 
--------------7--9--7-9----|-------------------|--------------------| 
--2--7--5-4---7--9--7-9----|--2----------------|--------------2-5---| 
--2---------5-5--7--5-7----|--2----------------|--------------2-5---| 
--0------------------------|--0----------------|--------------0-3---| 


Verse: 

        P    P    P       P    P    P                   P    P    P         
-----------------------|-----------------------|-----------------------| 
-----------------------|-----------------------|-----------------------| 
-----------------------|-----------------------|-----------------------| 
--2-----2----2----2----|--2----2----2----2-5---|--2-----2----2----2----| 
--2-----2----2----2----|--2----2----2----2-5---|--2-----2----2----2----| 
--0-----0----0----0----|--0----0----0----0-3---|--0-----0----0----0----| 


  P    P    P                   P    P    P       P    P    P             
-----------------------|-----------------------|-----------------------| 
-----------------------|-----------------------|-----------------------| 
-----------------------|-----------------------|-----------------------| 
--2----2----2----2-5---|--2-----2----2----2----|--2----2----2----2-5---| 
--2----2----2----2-5---|--2-----2----2----2----|--2----2----2----2-5---| 
--0----0----0----0-3---|--0-----0----0----0----|--0----0----0----0-3---| 


      P     P    P       P    P   P               P    P    P     P       
-----------------------|-----------------------|-----------------------| 
-----------------------|-----------------------|-----------------------| 
-----------------------|-----------------------|-----------------------| 
--2-----2----2----2----|--2----2----2----2-5---|--2-----2----2----2----| 
--2-----2----2----2----|--2----2----2----2-5---|--2-----2----2----2----| 
--0-----0----0----0----|--0----0----0----0-3---|--0-----0----0----0----| 


  P    P    P                   P    P    P       P    P    P             
-----------------------|-----------------------|-----------------------| 
-----------------------|-----------------------|-----------------------| 
-----------------------|-----------------------|-----------------------| 
--2----2----2----2-5---|--2-----2----2----2----|--2----2----2----2-5---| 
--2----2----2----2-5---|--2-----2----2----2----|--2----2----2----2-5---| 
--0----0----0----0-3---|--0-----0----0----0----|--0----0----0----0-3---| 



Chorus/Outro:   Play until fade out.  
----------------------------|----------------------------| 
----------------------------|----------------------------| 
----------------------------|--------------7--6----------| 
--2--7--5-4-----------x-5---|--2--7--5-4--------7--2-5---| 
--2---------5-5--4-0--x-5---|--2---------5---------2-5---| 
--0-------------------x-3---|--0-------------------0-3---| 


    
----------------------------|---------------------------| 
----------------------------|---------------------------| 
----------------------------|--------------7--9--7-9----| 
--2--7--5-4-----------2-5---|--2--7--5-4---7--9--7-9----| 
--2---------5-5--4-0--2-5---|--2---------5-5--7--5-7----| 
--0-------------------0-3---|--0------------------------| 


   
----------------------------|----------------------------| 
----------------------------|----------------------------| 
----------------------------|--------------7--6----------| 
--2--7--5-4-----------x-5---|--2--7--5-4--------7--2-5---| 
--2---------5-5--4-0--x-5---|--2---------5---------2-5---| 
--0-------------------x-3---|--0-------------------0-3---| 


     
----------------------------|---------------------------| 
----------------------------|---------------------------| 
----------------------------|--------------7--9--7-9----| 
--2--7--5-4-----------2-5---|--2--7--5-4---7--9--7-9----| 
--2---------5-5--4-0--2-5---|--2---------5-5--7--5-7----| 
--0-------------------0-3---|--0------------------------| 


   
----------------------------|----------------------------| 
----------------------------|----------------------------| 
----------------------------|--------------7--6----------| 
--2--7--5-4-----------x-5---|--2--7--5-4--------7--2-5---| 
--2---------5-5--4-0--x-5---|--2---------5---------2-5---| 
--0-------------------x-3---|--0-------------------0-3---| 



----------------------------|---------------------------| 
----------------------------|---------------------------| 
----------------------------|--------------7--9--7-9----| 
--2--7--5-4-----------2-5---|--2--7--5-4---7--9--7-9----| 
--2---------5-5--4-0--2-5---|--2---------5-5--7--5-7----| 
--0-------------------0-3---|--0------------------------| 



----------------------------|----------------------------| 
----------------------------|----------------------------| 
----------------------------|--------------7--6----------| 
--2--7--5-4-----------x-5---|--2--7--5-4--------7--2-5---| 
--2---------5-5--4-0--x-5---|--2---------5---------2-5---| 
--0-------------------x-3---|--0-------------------0-3---| 


     
----------------------------|---------------------------| 
----------------------------|---------------------------| 
----------------------------|--------------7--9--7-9----| 
--2--7--5-4-----------2-5---|--2--7--5-4---7--9--7-9----| 
--2---------5-5--4-0--2-5---|--2---------5-5--7--5-7----| 
--0-------------------0-3---|--0------------------------| 





| P  palm mute note 
| /  slide up 
| \  slide down 
| h  hammer-on 
| p  pull-off 
| ~  vibrato 
| +  harmonic 
| x   ute note 
============================================================================ 

	  

Full key step upFull key step up
Half key step upHalf key step up
Half key step downHalf key step down
Full key step downFull key step down
Search Paypal
auto scroll beats size up size down change color hide chords drawings
tab show chords e-chords YouTube Clip e-chords hide all tabs e-chords go to top tab

share with facebook