White Stripes

Hypnotize (ver. 2) Tab

White Stripes

Difficulty: nolevelnolevel

by KoJaK

tuner correct add songbook print version text version save to e-mail
chordsukulelecavacokeyboardtabbassdrumsharmonicsflute Guitar Pro
close

there isn't a video lesson for this song

request
chords

Hypnotize (ver. 2)

  		 
Intro: 
{E----------------------------- 
{B----------------------------- 
{G----------5-5-5--9-9-9--5-5-5  3x 
{D---7-7-7--5-5-5--9-9-9--5-5-5 
{A---7-7-7--3-3-3--7-7-7--3-3-3 
{E---5-5-5--------------------- 
 
 
{E-------------------- 
{B-------------------- 
{G-------------------- 
{D-7-7-7---3-5-7------ 
{A-7-7-7---3-5-7------ 
{E-5-5-5---1-3-5------ 
 
 
Bridge: 
{E----------------------------------------------- 
{B----------------------------------------------- 
{G----------5-5-5--9-9-9--5-5-5--9-9-9-9-10-9-9-9 
{D---7-7-7--5-5-5--9-9-9--5-5-5--9-9-9-9-10-9-9-9 
{A---7-7-7--3-3-3--7-7-7--3-3-3--7-7-7-7--8-7-7-7 
{E---5-5-5--------------------------------------- 
 
{E------------------------------------------------------------ 
{B------------------------------------------------------------ 
{G----------5-5-5--9-9-9--5-5-5--10-10-10--7-7-7--9-9-9------- 
{D---7-7-7--5-5-5--9-9-9--5-5-5--10-10-10--7-7-7--9-9-9--7-7-7 
{A---7-7-7--3-3-3--7-7-7--3-3-3---8--8--8--5-5-5--7-7-7--7-7-7 
{E---5-5-5-----------------------------------------------5-5-5 
 
CHORUS: 
{E----------------------------- 
{B----------------------------- 
{G----------5-5-5--9-9-9--5-5-5 
{D---7-7-7--5-5-5--9-9-9--5-5-5 
{A---7-7-7--3-3-3--7-7-7--3-3-3 
{E---5-5-5--------------------- 
                                   
{E-------------------- 
{B-------------------- 
{G-------------------- 
{D-7-7-7---3-5-7------ 
{A-7-7-7---3-5-7------ 
{E-5-5-5---1-3-5------ 
 
 
Repete tudo desde o começo depois vem o solo 
 
 
 
e|------------------------------------------------------------------- 
b|------------------------------------------------------------------- 
g|------------------------------------------------------------------- 
d|------------------------------------------------------------------- 
a|---0-0-0-0-0-0-0-0-0-0-0-0-0-0-0-0-0-0-0-0-0-0-0-0-0-0-0-0-0-0-0-0- 
e|------------------------------------------------------------------- 
 
e|------------------ 
b|------------------ 
g|------------------ 
d|------------------  x3 
a|------------------ 
e|0-1-1-1-1-3-3-3-3- 
 
e|-------------------------------------- 
b|-------------------------------------- 
g|-------------------------------------- 
d|-------------------------------------- 
a|--0-0-0-0-0-0-0-0--------------------- 
e|------------------0-1-1-1-1-3-3-3-3--- 
 
e|---------- 
b|---------- continua tocando até voltá pro primeiro Riff e fica nele até o fim 
g|---------- 
d|---------- 
a|---------- 
e|--0-0-0-0- 
	  

Search Paypal
auto scroll beats size up size down change color hide chords drawings
tab show chords e-chords YouTube Clip e-chords hide all tabs e-chords go to top tab

share with facebook