White Stripes

Broken Bricks Tab

White Stripes

Difficulty: nolevelnolevel

tuner correct add songbook print version text version save to e-mail
chordsukulelecavacokeyboardtabbassdrumsharmonicsflute Guitar Pro
close

there isn't a video lesson for this song

request
chords

Broken Bricks

  		Tabbed by- gorillabreath-(dominic) 
 
intro & verses: 
 
"well have ya been..." 
   
E----------- 
B----------- 
G----------- (repeat several times throughout verses) 
D----5-7-5-- 
A-7--3-5-3-- 
E-5--------- 
 
"yeah, yeah, yeah..." 
  
E---------------------- 
B---------------------- 
G---------------------- (repeat twice) 
D-------------5-4-3---- 
A-7-5-7-5-7-5-3-2-1-7-- 
E-5-3-5-3-5-3-------5-- 
 
"...broken crane yeah, yeah, yeah..." 
 
E--------------------- 
B--------------------- 
G--------------------- 
D--------------------- 
A-7-5-7-5-7-5-3-4-5-6- 
E-5-3-5-3-5-3-1-2-3-4- 
 
(final verse) "don't go to the..." 
 
E--------- 
B--------- 
G--------- (repeat 'til end) 
D---5-7-9- 
A-7-3-5-7- 
E-5------- 
	  

Search Paypal
auto scroll beats size up size down change color hide chords drawings
tab show chords e-chords YouTube Clip e-chords hide all tabs e-chords go to top tab

share with facebook