White Cross

Behold

White Cross

tabs

by  RANIEL_G3

save to print version add songbook text version e-mail correct tuner
chordsukulelecavacokeyboardtabbassdrumsharmonicaflute Guitar Pro
close

there isn't a video lesson for this song

chords

Behold

Key:  Am More
Behold Key EmEm
Behold Key FmFm
Behold Key F#mF#m
Behold Key GmGm(one step down)
Behold Key G#mG#m(half step down)
Behold Key AmAm(original key)
Behold Key A#mA#m(half step up)
Behold Key BmBm(one step up)
Behold Key CmCm
Behold Key C#mC#m
Behold Key DmDm
Behold Key D#mD#m
	  		(Solo) 
 
  Am                   Em                   D 
e:--------------------|--------------------|--------------------| 
B:--------------------|--------------------|--------------------| 
G:--------------------|---------------16---|14------------------| 
D:--------------------|--------------------|--------------------| 
A:19------------------|-----17--14---------|--------------------| 
E:--------------------|--------------------|--------------------| 
 
 
  Em                   C                    Em 
e:--------------------|--------------------|--------------------| 
B:--------------------|17------------------|--------------------| 
G:---------------16---|--------------------|16-14-16------------| 
D:14-/-16---17--------|--------------------|----------17---14---| 
A:--------------------|--------------------|--------------------| 
E:--------------------|--------------------|--------------------| 
 
 
  D                    G 
e:--------------------|--------------------| 
B:-----15-------------|-------------15-----| 
G:--------------------|12-14-12-14b(16)----| 
D:--------------------|--------------------| 
A:14------------------|--------------------| 
E:--------------------|--------------------| 
 

		  

Full key step upFull key step up
Half key step upHalf key step up
Half key step downHalf key step down
Full key step downFull key step down
hide glossary

See also:

tabs The Raveonettes - silent night (ver. 2) tabs Lee Greenwood - God Bless The Usa tabs Planetshakers - Fall in this place tabs Brad Paisley - The Old Rugged Cross tabs Caedmon's Call - April Showers tabs The Raveonettes - Hark! The Herald Angels Sing
e-chords

Other versions:

tabs White Cross - Behold tabs Angels and Airwaves - Behold A Pale Horse
auto scroll beats size up size down change color hide chords drawings
tab show chords e-chords YouTube Clip e-chords hide all tabs e-chords go to top tab

share