Weezer

home > Weezer

This is such a pity Tab

Weezer

Difficulty: nolevelnolevel

by europeu

tuner correct add songbook print version text version save to e-mail
chordsukulelecavacokeyboardtabbassdrumsharmonicsflute Guitar Pro
chords

This is such a pity

  		verse 
 
e------------------------------------------------------------------| 
b------------------------------------------------------------------| 
g---6--4-----------------------------------------------------------| 
d---6--4--2--6-----------------------------------------------------| 
a---4--2--2--6-----------------------------------------------------| 
e---------0--4-----------------------------------------------------| 
 
verse part 2 ('i know how to pick on you') 
 
e------------------------------------------------------------------| 
b------------------------------------------------------------------| 
g--6---------------------------------------------------------------| 
d--6--6--7--6------------------------------------------------------| 
a--4--6--7--6------------------------------------------------------| 
e-----4--5--4------------------------------------------------------| 
 
Chorus 
 
e-------------------------------------------------------------------| 
b-------------------------------------------------------------------| 
g------4------------------------------------------------------------| 
d---4--4--2--7---------------------------------------6--------------| 
a---4--2--2--7---------------------------------------6--------------| 
e---2-----0--5---(last chord changes at 3rd bar to:--4--------------| 
 
solo 
 
e---------------------------------------------------------------------------| 
b--------------------------------------------7-5-7---7-5-4---4/1------------| 
g--6-4-6p4-6-----------6-8-6-8p6-8-----------8-----6-------6----------------| 
d------------(4-6p4-6)-------------(7-9p7-9)--------------------------------| 
a---------------------------------------------------------------------------| 
e---------------------------------------------------------------------------| 
 
e------------------9p7-9---------9/11-9-11p9-11-----------------------------| 
b--9-7-4-5-4-2--5--------(9p7-9)-----------------(10-12p10-12)--------------| 
g---------------------------------------------------------------------------| 
d---------------------------------------------------------------------------| 
a---------------------------------------------------------------------------| 
e---------------------------------------------------------------------------| 
 
e--16-14-------14-12-14----------16-14---------------------------------------| 
b--------17-14----------14-16/13-------16-17-16-14---------------------------| 
g----------------------------------------------------------------------------| 
d----------------------------------------------------------------------------| 
a----------------------------------------------------------------------------| 
e----------------------------------------------------------------------------| 

	  

Search Paypal
auto scroll beats size up size down change color hide chords drawings
tab show chords e-chords YouTube Clip e-chords hide all tabs e-chords go to top tab