Weezer

home > Weezer

The Sweater Song Tab

Weezer

Difficulty: BeginnerBeginner

tuner correct add songbook print version text version save to e-mail
chordsukulelecavacokeyboardtabbassdrumsharmonicsflute Guitar Pro
chords

The Sweater Song

  		this song is so easy 
 
Intro/ verse: 
 
------------------ 
----0---0---0---0- 
---3---3---5---3-- 
--2---2---4---2--- 
-----3---5---3--- 
3----------------- 
 
Verse: same rhythm as chorus, very softly (almost palm muted but not)
 (in the song you can?t really hear this part.) 
 
G	C	D	 C	 
-3-	-0-	-2-	 -0- 
-0-	-1-	-3-	 -1- 
-0-	-0-	-2-	 -0- 
-0-	-2-	-0-	 -2- 
-2-	-3-	-0-	 -3- 
-3- x4	-0- x4	-0- x4	 -0- x4  
 
 
 
Chorus: 
---------------------------------------- 
---------------------------------------- 
----------5-5-5-5----7-7-7-7-----5-5-5-5 
5-5-5-5---5-5-5-5----7-7-7-7-----5-5-5-5 
5-5-5-5---3-3-3-3----5-5-5-5-----3-3-3-3  
3-3-3-3--------------------------------- 
2nd chorus is just strummed 5 times instead of four and faster. 
 
play these chords under solo (since the solo isn?t quite figured out yet):                  
------------------------------------------------------ 
---------8-8-8-8-------------------------------------- 
8-8-8-8--8-8-8-8--10-10-10-10------------------------- 
8-8-8-8--6-6-6-6--10-10-10-10-------------------------                          
6-6-6-6------------8--8--8--8------------------------- 
 
Rate!!!!!!!!!!!! 5 stars!!!!!!!!! please give me 5! 
 
 
order: 
 
intro x10 
Chorus x3 
intro riff x2 
chorus x4 
solo (not tabbed yet) 
chorus about x11 
2nd chorus until end (with solo (not tabbed) 
 
within the next month I will have the solo! 
 

	  

Full key step upFull key step up
Half key step upHalf key step up
Half key step downHalf key step down
Full key step downFull key step down
Search Paypal
auto scroll beats size up size down change color hide chords drawings
tab show chords e-chords YouTube Clip e-chords hide all tabs e-chords go to top tab