Weezer

home > Weezer

My name is Jonas Tab

Weezer

Difficulty: AdvancedAdvanced

tuner correct add songbook print version text version save to e-mail
chordsukulelecavacokeyboardtabbassdrummharmonicsflute Guitar Pro
chords

My name is Jonas

  		 
This is what I think the fingerpicking part goes like at the 
beginning of the song: 
(TUNED 1/2 STEP DOWN) 
(6/8 time) 
 
* = down beat 
 
----------------------------0-------------------------------0--- 
----1-------1-------0---------0-----1-------1-------0---------0- 
------0-------0-------0---------------2-------2-------0--------- 
----------2---------------0---------------2---------------0----- 
--3---------------2---------------0---------------2------------- 
---------------------------------------------------------------- 
  *               *               *               * 
 
And then this is the loud part 
---------------------------------------------------------------- 
---------------------------------------------------------------- 
--5-5-5--------------------------------------------------------- 
--5-5-5--5-5-5--7-7-7--3-3-3------------------------------------ 
--3-3-3--5-5-5--7-7-7--3-3-3------------------------------------ 
---------3-3-3--5-5-5--1-1-1------------------------------------ 
  *      *      *      * 
 
 
_______________________________________________________ 
Contribuição: ([email protected]) 

	  

Search Paypal
auto scroll beats size up size down change color hide chords drawings
tab show chords e-chords YouTube Clip e-chords hide all tabs e-chords go to top tab