Weezer

home > Weezer

Knock-down Drag-Out Tab

Weezer

Difficulty: nolevelnolevel

tuner correct add songbook print version text version save to e-mail
chordsukulelecavacokeyboardtabbassdrumsharmonicsflute Guitar Pro
chords

Knock-down Drag-Out

  		Tuning: Standard 
 
Intro 
 
|-------------------------------|          Alright, this is my first  
|--0---0------------------------|          tab and I think it sucks 
|5---5--------------------------|          but ive only been playing 
|---------5-5-5--3-3-3--8-8-8---|          for 1 year without lessons 
|---------5-5-5--3-3-3--8-8-8---|          so if theirs any mistakes, 
|---------3-3-3--1-1-1--6-6-6---|                   sorry. 
 
|-------------------------------| 
|-------------------------------| 
|-------5-----------------------| 
|5-555?-5?x16-------------------| 
|5-555--3-----------------------| 
|3-333--------------------------| 
 
Verse 
|-------------------------------| 
|-------------------------------| 
|5-5-5-5-5-5-5-5----------------| 
|5-5-5-5-5-5-5-5-3-3-3-3-3-3-3-3| 
|3-3-3-3-3-3-3-3-3-3-3-3-3-3-3-3| 
|----------------1-1-1-1-1-1-1-1| 
 
 
|-------------------------------| 
|-------------------------------| 
|----------------5-5-5-5-5-5-5-5| 
|5-5-5-5-5-5-5-5-5-5-5-5-5-5-5-5|   x2 
|5-5-5-5-5-5-5-5-3-3-3-3-3-3-3-3| 
|3-3-3-3-3-3-3-3----------------| 
 
Chorus 
|-------------------------------| 
|-------------------------------| 
|-------------------------------| 
|2-2-2-2-2-2-2-2-7-7-7-7-7-7-7-7| 
|2-2-2-2-2-2-2-2-7-7-7-7-7-7-7-7| 
|0-0-0-0-0-0-0-0-5-5-5-5-5-5-5-5| 
 
|-------------------------------| 
|-------------------------------| 
|-------------------------------| 
|5-5-5-5-5-5-5-5-7-7-7-7-7-7-7-7| 
|5-5-5-5-5-5-5-5-7-7-7-7-7-7-7-7| 
|3-3-3-3-3-3-3-3-5-5-5-5-5-5-5-5| 
 
|-------------------------------| 
|-------------------------------| 
|-------------------------------| 
|4-4-4-4-4-4-4-4-9-9-9-9-9-9-9-9| 
|4-4-4-4-4-4-4-4-9-9-9-9-9-9-9-9| 
|2-2-2-2-2-2-2-2-7-7-7-7-7-7-7-7| 
 
|-------------------------------| 
|-------------------------------| 
|-------------------------------| 
|2-2-2-2-2-2-2-2-5-5-5-5-5-5-5-5| 
|2-2-2-2-2-2-2-2-5-5-5-5-5-5-5-5| 
|0-0-0-0-0-0-0-0-3-3-3-3-3-3-3-3| 
 
Verse 
|-------------------------------| 
|-------------------------------| 
|5-5-5-5-5-5-5-5----------------| 
|5-5-5-5-5-5-5-5-3-3-3-3-3-3-3-3| 
|3-3-3-3-3-3-3-3-3-3-3-3-3-3-3-3| 
|----------------1-1-1-1-1-1-1-1| 
 
 
|-------------------------------| 
|-------------------------------| 
|----------------5-5-5-5-5-5-5-5| 
|5-5-5-5-5-5-5-5-5-5-5-5-5-5-5-5|   x2 
|5-5-5-5-5-5-5-5-3-3-3-3-3-3-3-3| 
|3-3-3-3-3-3-3-3----------------| 
 
Chorus 
|-------------------------------| 
|-------------------------------| 
|-------------------------------| 
|2-2-2-2-2-2-2-2-7-7-7-7-7-7-7-7| 
|2-2-2-2-2-2-2-2-7-7-7-7-7-7-7-7| 
|0-0-0-0-0-0-0-0-5-5-5-5-5-5-5-5| 
 
|-------------------------------| 
|-------------------------------| 
|-------------------------------| 
|5-5-5-5-5-5-5-5-7-7-7-7-7-7-7-7| 
|5-5-5-5-5-5-5-5-7-7-7-7-7-7-7-7| 
|3-3-3-3-3-3-3-3-5-5-5-5-5-5-5-5| 
 
|-------------------------------| 
|-------------------------------| 
|-------------------------------| 
|4-4-4-4-4-4-4-4-9-9-9-9-9-9-9-9| 
|4-4-4-4-4-4-4-4-9-9-9-9-9-9-9-9| 
|2-2-2-2-2-2-2-2-7-7-7-7-7-7-7-7| 
 
|-------------------------------| 
|-------------------------------| 
|-------------------------------| 
|2-2-2-2-2-2-2-2-5-5-5-5-5-5-5-5| 
|2-2-2-2-2-2-2-2-5-5-5-5-5-5-5-5| 
|0-0-0-0-0-0-0-0-3-3-3-3-3-3-3-3| 
 
then ... 
|-------------------------------| 
|-------------------------------| 
|-------------------------------| 
|5-5-5--3-3-3--8-8-8--5-555-----| 
|5-5-5--3-3-3--8-8-8--5-555-----| 
|3-3-3--1-1-1--6-6-6--3-333-----| 
 
|-------------------------------| 
|---------5---------------------| 
|5-5-5-5--5--5------------------| 
|5-5-5-5--3--5------------------| 
|3-3-3-3-----3------------------| 
|-------------------------------| 
 
Solo (Played while playing verse) 
|-------------------------------| 
|-------------------------------| 
|9-9-9\5-5-5-5\4-4-2-4-5--------|  x2 
|-------------------------------| 
|-------------------------------| 
|-------------------------------| 
 
Chorus 
|-------------------------------| 
|-------------------------------| 
|-------------------------------| 
|2-2-2-2-2-2-2-2-7-7-7-7-7-7-7-7| 
|2-2-2-2-2-2-2-2-7-7-7-7-7-7-7-7| 
|0-0-0-0-0-0-0-0-5-5-5-5-5-5-5-5| 
 
|-------------------------------| 
|-------------------------------| 
|-------------------------------| 
|5-5-5-5-5-5-5-5-7-7-7-7-7-7-7-7| 
|5-5-5-5-5-5-5-5-7-7-7-7-7-7-7-7| 
|3-3-3-3-3-3-3-3-5-5-5-5-5-5-5-5| 
 
|-------------------------------| 
|-------------------------------| 
|-------------------------------| 
|4-4-4-4-4-4-4-4-9-9-9-9-9-9-9-9| 
|4-4-4-4-4-4-4-4-9-9-9-9-9-9-9-9| 
|2-2-2-2-2-2-2-2-7-7-7-7-7-7-7-7| 
 
|-------------------------------| 
|-------------------------------| 
|-------------------------------| 
|2-2-2-2-2-2-2-2-5-5-5-5-5-5-5-5| 
|2-2-2-2-2-2-2-2-5-5-5-5-5-5-5-5| 
|0-0-0-0-0-0-0-0-3-3-3-3-3-3-3-3| 
 
Then this while playing the solo 
|-------------------------------| 
|-------------------------------| 
|5-5-5-5-5-5-5-5----------------| 
|5-5-5-5-5-5-5-5-3-3-3-3-3-3-3-3| 
|3-3-3-3-3-3-3-3-3-3-3-3-3-3-3-3| 
|----------------1-1-1-1-1-1-1-1| 
 
|-------------------------------| 
|-------------------------------| 
|----------------5-5-5-5-5-5-5-5| 
|5-5-5-5-5-5-5-5-5-5-5-5-5-5-5-5|  x3 
|5-5-5-5-5-5-5-5-3-3-3-3-3-3-3-3| 
|3-3-3-3-3-3-3-3----------------| 
 

	  

Search Paypal
auto scroll beats size up size down change color hide chords drawings
tab show chords e-chords YouTube Clip e-chords hide all tabs e-chords go to top tab