Weezer

home > Weezer

I've Had It Up To Here Tab

Weezer

Difficulty: nolevelnolevel

by alyslima

tuner correct add songbook print version text version save to e-mail
chordsukulelecavacokeyboardtabbassdrumsharmonicsflute Guitar Pro
chords

I've Had It Up To Here

  		


m mute  
\ slide down 


Tuning (eb ab db gb bb eb) 



----|------------------------------------|----------|------------|--| 
----|------------------------------------|----------|------------|--| 
----|-0---10-10--5--4---4-4-----4-4-4----|--5---4---|--5----4----|--| 
----|-0---10-10--5--5---5-5-----5-5-5----|--5---5---|--5----5----|--| 
----|-----12-12--3--5---5-5-----5-5-5----|--5---5---|--5----5----|--| 
----|------------------------------------|----------|------------|--| 
                           m         m      1st End    2nd End     

  Verse 



                

----|---------------------------------------------------------------------------| 
----|-6-6------5-5------------------------6-6------5-5--------------------------| 
----|-5-5-5----5-5-5----4-4-4----5-5-5----5-5-5----5-5-5---4-4-4-4-4-4-4-4-5----| 
----|-7-7-7----5-5-5----5-5-5----5-5-5----7-7-7----5-5-5---5-5-5-5-5-5-5-5-5----| 
----|-8-8-8----3-3-3----5-5-5----3-3-3----8-8-8----3-3-3---5-5-5-5-5-5-5-5-3----| 
----|-----5--------3----3-3-3----3-3-3--------5--------3---3-3-3-3-3-3-3-3-3----| 
      u                                                    d    

  PreChorus                 






----|---------------------------------------------------------------------| 
----|---------------------------------------------------------------------| 
----|---------------------------------------------------------------------| 
----|---------------------------------------------------------------------| 
----|---------------------------------------------------------------------| 
----|-3-3-3-3-8-8-8-8-5-5-5-5-10-10-10-10-3-3-3-3-7-7-7-7-5-5-5-5-5-5-5-5-| 
  

  Chorus                                                                       






----|---------------------------------------------------------|--| 
----|-----5----5-------5----5-------5----5-------5------------|--| 
----|-----5----5-------5----5-------5----5-------5----5---4---|--| 
----|-------------------------------------------------7---6---|2x| 
----|-------------------------------------------------8---7---|--| 
----|-5------------3------------1------------1--------8---7---|--| 
          m   m         m    m       m    m       m      

  Bridge 
                                 


----|---------------------------------------------------------------------------| 
----|----6----6-----5----5--------3v--------------------------------------------| 
----|----7----7-----5----5------------------------------------------------------| 
----|----7----7--------------5/7-------5v----3v------6v-------6-8-6-5v----12\---| 
----|---------------------------------------------------------------------11\---| 
----|-1----------5--------------------------------------------------------------| 
          m    m     m    m                                               

  Bridge End 
	  

Search Paypal
auto scroll beats size up size down change color hide chords drawings
tab show chords e-chords YouTube Clip e-chords hide all tabs e-chords go to top tab