Weezer

home > Weezer

I Swear Its True Tab

Weezer

Difficulty: nolevelnolevel

tuner correct add songbook print version text version save to e-mail
chordsukulelecavacokeyboardtabbassdrumsharmonicsflute Guitar Pro
chords

I Swear Its True

  		 
Tune: Half Step Eb 
cwbadger(J.D.A.) 
Please Rate 
 
Guitar 1, Heavy Distortion, Neck Pickup 
Guitar 2, Hard Distortion, Neck Pickup 
 
Intro 
Gtr. I & II 
        |--------Play 4x------| 
Eb|-----|---------------------| 
Bb|-----|---------------------| 
Gb|-----|-----6-4---4---------| 
Db|-----|-----4-2---2---------| 
Ab|--2--|-2-4---------6-4-2---| 
Eb|--0--|-0-2---------4-2-0---| 
 
Verse 
Gtr. I & II 
  |-------Play 4x-------| 
Eb|---------------------| 
Bb|---------------------| 
Gb|-----6-4---4---------| 
Db|-----4-2---2---------| 
Ab|-2-4---------6-4-2---| 
Eb|-0-2---------4-2-0---| 
 
Chrous 
Gtr. I 
  |-------Play 4x-------| 
Eb|---------------------| 
Bb|---------------------| 
Gb|-----6-4---4---------| 
Db|-----4-2---2---------| 
Ab|-2-4---------6-4-2---| 
Eb|-0-2---------4-2-0---| 
 
Gtr. II 
  |-------Play 2x-------| 
Eb|---------------------|---------------------| 
Bb|---------16-16-14-9--|---------16-16-13-5\-| 
Gb|---------------------|---------------------| 
Db|---------------------|---------------------| 
Ab|---------------------|---------------------| 
Eb|---------------------|---------------------| 
 
Solo 1 
Gtr. I 
  |-------Play 2x-------| 
Eb|---------------------| 
Bb|---------------------| 
Gb|-----6-4---4---------| 
Db|-----4-2---2---------| 
Ab|-2-4---------6-4-2---| 
Eb|-0-2---------4-2-0---| 
 
Gtr. II 
  |-------Play 2x-------| 
Eb|------0------0-------| 
Bb|--5b-----5b-----5b~--| 
Gb|---------------------| 
Db|---------------------| 
Ab|---------------------| 
Eb|---------------------| 
 
Repeat Verse 
 
Chrous 2 
Gtr. I (Little messup on the guitar thought I'd just put it in, you can play the same
if you want it to sound good) 
  |---------------------|-------Play 3x-------| 
Eb|---------------------|---------------------| 
Bb|---------------------|---------------------| 
Gb|-----6-4---4---------|-----6-4---4---------| 
Db|-----4-2---2---------|-----4-2---2---------| 
Ab|-2-4---------6-4-3b--|-2-4---------6-4-2---| 
Eb|-0-2---------4-2-1b--|-0-2---------4-2-0---| 
 
Gtr. II 
  |-------Play 2x-------| 
Eb|---------------------|---------------------| 
Bb|---------16-16-14-9--|---------16-16-13-5\-| 
Gb|---------------------|---------------------| 
Db|---------------------|---------------------| 
Ab|---------------------|---------------------| 
Eb|---------------------|---------------------| 
 
Bridge 
Gtr. I & II 
  |-------------Play 2x-------------| 
Eb|---------------------------------| 
Bb|---------------------------------| 
Gb|---------------------------------| 
Db|-8-8-8-8-8-8-8-8-6-6-6-6-6-6-6-6-| 
Ab|-6-6-6-6-6-6-6-6-4-4-4-4-4-4-4-4-| 
Eb|---------------------------------| 
 
Solo 2 
Gtr. I 
  |-------Play 4x-------| 
Eb|---------------------| 
Bb|---------------------| 
Gb|-----6-4---4---------| 
Db|-----4-2---2---------| 
Ab|-2-4---------6-4-2---| 
Eb|-0-2---------4-2-0---| 
 
Gtr. II 
Eb|-----|--------15--17b-15--14--------------| 
Bb|-17~-|-17b~------------------17-14-12-14\-| 
Gb|-----|------------------------------------| 
Db|-----|------------------------------------| 
Ab|-----|------------------------------------| 
Eb|-----|------------------------------------| 
 
Repeat Chorus 
 
Outro 
Gtr. I 
  |-------Play 4x-------| 
Eb|---------------------| 
Bb|---------------------| 
Gb|-----6-4---4---------| Fade Out 
Db|-----4-2---2---------| 
Ab|-2-4---------6-4-2---| 
Eb|-0-2---------4-2-0---| 
 
END 
 

	  

Full key step upFull key step up
Half key step upHalf key step up
Half key step downHalf key step down
Full key step downFull key step down
Search Paypal
auto scroll beats size up size down change color hide chords drawings
tab show chords e-chords YouTube Clip e-chords hide all tabs e-chords go to top tab