Weezer

home > Weezer

El Scorcho Tab

Weezer

Difficulty: nolevelnolevel

tuner correct add songbook print version text version save to e-mail
chordsukulelecavacokeyboardtabbassdrumsharmonicsflute Guitar Pro
chords

El Scorcho

  		 
intro/verse 
----------- 
 
e----------------------------------- 
b----------------------------------- 
g-------5v------------10v----------- 
d-----------6--------------11-------                                            
a----6------------11---------------- 
e-4------------9-------------------- 
 god    damn  you  half .... 
 
 
chorus 
------ 
 
e----------------------------------- 
b----------------------------------- 
g-------5v------------10v----------- 
d-----------6--------------11------- 
a----6------------11---------------- 
e-4------------9-------------------- 
   i'm  a lot  like  you  so please 
 
Bridge 
--------- 
 
e----------------------------------------------------------- 
b----------------------------------------------------------- 
g----------------------------------------------------------- 
d-------------6-6-6-6-6-6-------------8-8-8-8-8-8-----------  3X 
a-6-6-6-6-6-6-4-4-4-4-4-4-8-8-8-8-8-8-6-6-6-6-6-6----------- 
e-4-4-4-4-4-4-------------6-6-6-6-6-6----------------------- 
   how  stupid is it? i can't talk about it 
 
 
 
solo  (try 1) 
---- 
 
e-------------------13--12--18--16--15h-16--20------18s-20-- 
b-11--13-----9--11------------------------------------------ 
g---------9-------------------------------------17----------  
d----------------------------------------------------------- 
a----------------------------------------------------------- 
e----------------------------------------------------------- 
 
 
 
solo    (try 2) 
------- 
 
 
E-----------------------------------13---11--------18-16-15/1615- 
B----11---13---------------11----------------------------------------- 
G-----------------------13-------------------------------------------- 
D-----------------14-------------------------------------------------- 
A--------------------------------------------------------------------- 
E--------------------------------------------------------------------- 
 
E----------------------20-------------18/---------------------------- 
B----16b--------------------16---------------------------------------- 
 
solo 3   (try 3) 
------- 
 
 
e-------------------------------------------------------------- 
B--------------------------------11--9--8h9-------13------11h13 
G--------------------------9-8---------------8----------------- 
D---8------10--------6--8-----------------------------13------- 
A-------------7------------------------------------------------ 
E-------------------------------------------------------------- 
 
 
_______________________________________________________ 
Contribuição: Henrique Pontes([email protected]) 

	  

Search Paypal
auto scroll beats size up size down change color hide chords drawings
tab show chords e-chords YouTube Clip e-chords hide all tabs e-chords go to top tab