Weezer

home > Weezer

Do You Wanna Get High Tab

Weezer

Difficulty: nolevelnolevel

by abelamin

tuner correct add songbook print version text version save to e-mail
chordsukulelecavacokeyboardtabbassdrumsharmonicsflute Guitar Pro
chords

Do You Wanna Get High

  		
Intro:  
both guitars 

E|--8b(full)-- 
B|--12b(full)- 
G|------------ 
D|------------ 
A|------------ 
E|------------ 

Verse+Chorus: 
guitar 1 (palm muted) 
E|------------------------------------------------------------------------------------------------------ 
B|------------------------------------------------------------------------------------------------------ 
G|--9--9--9--9--9--9--------------------7--7--7--7------------------------------------------------------ 
D|--9--9--9--9--9--9--7--7--7--7--7--7--7--7--7--7-----4--4--4--4--5--5--5--5--4--4--4------------------ 
A|--7--7--7--7--7--7--7--7--7--7--7--7--5--5--5--5-----4--4--4--4--5--5--5--5--4--4--4------------------ 
E|--------------------5--5--5--5--5--5-----------------2--2--2--2--3--3--3--3--2--2--2------------------ 

Chorus: 
guitar 2 
E|------------------------------------------------------------------------------------------------------ 
B|------------------------------------------------------------------------------------------------------ 
G|--18--17--15--13--12-----------17--15--13--12--10-----------18--17--15--13--12--20b22--18--17--------- 
D|------------------------------------------------------------------------------------------------------ 
A|------------------------------------------------------------------------------------------------------ 
E|------------------------------------------------------------------------------------------------------ 

Chorus 2: 
guitar 2 
E|----------------------------------------------------------------------------------------------------- 
B|----------------------------------------------------------------------------------------------------- 
G|----------------------------------------------------------------------------------------------12--11- 
D|--9-9-9-9-9--10--------9--7-----7--7--7--7--7--9--12--14--9--9--9--9-----10-----9--7--7--7/12-------- 
A|----------------------------------------------------------------------------------------------------- 
E|----------------------------------------------------------------------------------------------------- 

E|----------------------------------------------------------------------------------------------------- 
B|----------------------------------------------------------------------------------------------------- 
G|----------------------------------------------------------------------------------------------------- 
D|--9--9--9--9--9--10--9----------------------------------12--11-12---17b18b17------------------------- 
A|------------------------12--12--12--12--12--12--12--12----------------------------------------------- 
E|----------------------------------------------------------------------------------------------------- 

E|----------------------------------------------------------------------------------------------------- 
B|----------------------------------------------------------------------------------------------------- 
G|----------------------------------------------------------------------------------------------------- 
D|--9--9--9--9--9--9--10-----------9--7--------12b14b12--10--9----------------------------------------- 
A|----------------------------------------------------------------------------------------------------- 
E|----------------------------------------------------------------------------------------------------- 

Bridge: 
guitar 1 
E|----------------------------------------------------------------------------------------------------- 
B|----------------------------------------------------------------------------------------------------- 
G|-----5----------7---------4---------9---------------------------------------------------------------- 
D|-----5---X8-----7---X8----4---X8----9---X8----------------------------------------------------------- 
A|-----3----------5---------2---------7---------------------------------------------------------------- 
E|----------------------------------------------------------------------------------------------------- 

Guitar 2 

E|-----------------------------------------------------------------------------------------------------= 
B|------------------------------------------------------------------------------------------------------ 
G|--4--4--5--5--5--5--7--7--9--9--7--7--7--5--4--4--4--4--4--4--4--4--4--9--9--9--11-11-12-12-17-------- 
D|------------------------------------------------------------------------------------------------------ 
A|------------------------------------------------------------------------------------------------------ 
E|------------------------------------------------------------------------------------------------------ 

Solo: 
E|------------------------------------------------- 
B|------------------------------------------------- 
G|--7--5--4--4h5--2--0--4--4--4--4--4--4--4--4--4-- 
D|------------------------------------------------- 
A|------------------------------------------------- 
E|------------------------------------------------- 

E|-------------------------------------------------------------- 
B|--8--8--8--8--10--10--12--12--12--12--12--12--10--10--10--10-- 
G|-------------------------------------------------------------- 
D|--5--5--5--5--7---7---9---9---9---9---9---9---7---7---7---7--- 
A|-------------------------------------------------------------- 
E|-------------------------------------------------------------- 

E|------------------------------------------------------ 
B|--17--17--17--17--15--15--13--13--12--12--12--12--12-- 
G|------------------------------------------------------ 
D|--14--14--14--14--12--12--10--10--9---9---9---9---9--- 
A|------------------------------------------------------ 
E|------------------------------------------------------ 


E|------10------19------19------19------17------17------17------15----------15------ 
B|--12------12------12------12------12------12------12------12------12--12------12-- 
G|---------------------------------------------------------------------------------- 
D|---------------------------------------------------------------------------------- 
A|---------------------------------------------------------------------------------- 
E|---------------------------------------------------------------------------------- 


E|------19--------19------17------17--17h19p17--15-- 
B|--12------12-12----12------12--------------------- 
G|-------------------------------------------------- 
D|-------------------------------------------------- 
A|-------------------------------------------------- 
E|--------------------------------------------------  
	  

Search Paypal
auto scroll beats size up size down change color hide chords drawings
tab show chords e-chords YouTube Clip e-chords hide all tabs e-chords go to top tab