Weezer

home > Weezer

Death And Destruction Tab

Weezer

Difficulty: nolevelnolevel

tuner correct add songbook print version text version save to e-mail
chordsukulelecavacokeyboardtabbassdrumsharmonicsflute Guitar Pro
chords

Death And Destruction

  		    Montreal, Quebec 
    [email protected] 
 
 
This song is AMAZING! I really like it with the vocals, I hope the band uses 
them on the album version. This song was incredibly difficult to figure out, 
and this tab is only a simplified version. 
 
 
Chords: 
| D | C# | F# | B | 
e|---|----|----|---|---------------------------------------------------------| 
B|---|----|----|---|---------------------------------------------------------| 
G|-7-|--6-|----|-4-|---------------------------------------------------------| 
D|-7-|--6-|--4-|-4-|---------------------------------------------------------| 
A|-5-|--4-|--4-|-2-|---------------------------------------------------------| 
E|-5-|--4-|--2-|-2-|---------------------------------------------------------| 
 
 
Verse (riff 1) 
e|---------------------------------------------------------------------------| 
B|--2---2-----------2--------------------------------------------------------| 
G|--2---2-----------2--------------------------------------------------------| 
D|--2---2-----------2--------------------------------------------------------| 
A|--0---4---5-5-7---0--------------------------------------------------------| 
E|----------2-2-4------------------------------------------------------------| 
 
Verse (riff 2) 
e|---------------------------------------------------------------------------| 
B|---------------------------------------------------------------------------| 
G|---7-7-7-7---6-6-6-6-------------------------------------------------------| 
D|--7-7-7-7---7-7-7-7----9-9-9-7-6-6-6h7p6-4---------------------------------| 
A|----------------------5-5-5------------------------------------------------| 
E|---------------------------------------------------------------------------| 
 
Chorus: 
 
D      C#       F#       B              (riff 3) 
  So I learn to turn and look the other way 
 
Riff 3 
------> this part is hard. only pick the notes with * above them. you must 
        use hits and pulls to make this work, and it takes some practice. 
e|--*-*-----*----------------------------------------------------------------| 
B|---------------------------------------------------------------------------| 
G|----------6-7-9-7-6-7-6-4-6-4-2-4-2-1-2------------------------------------| 
D|----6-7-9------------------------------------------------------------------| 
A|--7------------------------------------------------------------------------| 
E|---------------------------------------------------------------------------| 
 
 
Solo (taken from the 1/12/02 version): 
e|---------------------------------------------------------------------------| 
B|---------------------------------------------------------------------------| 
G|---------------------------1-----------------------------------------------| 
D|--7b8r7--6-7-6-4-2---4-2-4---4-2-0-2-0---0---------------------------------| 
A|---------------------------------------4---4-2-4-2-0-2-0-----0-------------| 
E|---------------------------------------------------------4-2---------------| 
 
e|---------------------------------------------------------------------------| 
B|---------------------------------------------------------------------------| 
G|-----------------------improvise the rest, i don't wanna tab it  
out--------| 
D|--7~~~---9b10r9~~~---------------------------------------------------------| 
A|---------------------------------------------------------------------------| 
E|---------------------------------------------------------------------------| 
 
Outro: 
e|---------------------------------------------------------------------------| 
B|--2---2-----------2-----------2--------------------------------------------| 
G|--2---2-----------2-----------2--------------------------------------------| 
D|--2---2-----------2-----------2--------------------------------------------| 
A|--0---4---5-5-7---0---5-5-7---0---5-5-5-5----------------------------------| 
E|----------2-2-4-------2-2-4-------2-2-1-1----------------------------------| 
----> the rest of the outro is a variation on riff 2 of the verse. 
 
 
end on this chord: 
e|-4-| 
B|-2-| 
G|-2-| 
D|---| 
A|---| 
E|---| 
 

	  

Full key step upFull key step up
Half key step upHalf key step up
Half key step downHalf key step down
Full key step downFull key step down
Search Paypal
auto scroll beats size up size down change color hide chords drawings
tab show chords e-chords YouTube Clip e-chords hide all tabs e-chords go to top tab