Weezer

home > Weezer

Can't Knock The Hustle Tab

Weezer

Difficulty: nolevelnolevel

by tarikike

tuner correct add songbook print version text version save to e-mail
chordsukulelecavacokeyboardtabbassdrumsharmonicsflute Guitar Pro
chords

Can't Knock The Hustle

  		verse 1 

e|----------------|----------------|----------------|------13b15-----| 
B|----------------|----------------|----------------|----------------| 
G|----3-----------|----3-----------|----3-----------|----------------| 
D|--5----5p3-5p3--|--5----5p3-5p3--|--5----5p3-5p3--|--5-------------| 
A|----------------|----------------|----------------|----------------| 
E|----------------|----------------|----------------|----------------| 

e|----------------|----------------|----------------|----------------| 
B|----------------|----------------|----------------|----------------| 
G|----3-----------|----3-----------|----3-----------|-----3-----3----| 
D|--5----5p3-5p3--|--5----5p3-5p3--|--5----5p3-5p3--|--5-----5-------| (x2) 
A|----------------|----------------|----------------|----------------| 
E|----------------|----------------|----------------|----------------| 

e|----------------|----------------|----------------|------13b15-----| 
B|----------------|----------------|----------------|----------------| 
G|----3-----------|----3-----------|----3-----------|----------------| 
D|--5----5p3-5p3--|--5----5p3-5p3--|--5----5p3-5p3--|--5-------------| 
A|----------------|----------------|----------------|----------------| 
E|----------------|----------------|----------------|----------------| 


Chorus 1 

e|--------------|----------------|---------------|---------------| 
B|--------------|-------------3--|---------------|---------------| 
G|-----------5--|----------------|------------5--|------------5--| 
D|----5--5------|----5-5-5-5-----|----5-5-5-5----|----5-5-5-5----| 
A|--3-----------|--3-------------|--3------------|--3------------| 
E|--------------|----------------|---------------|---------------| 

e|--------------------------|--------------------------| 
B|--------------------------|--------------------------| 
G|-------------------3------|-------------------3------| 
D|----5-5-5-5-5-5--5---5-3--|----5-5-5-5-5-5--5---5-3--| 
A|--------------------------|--------------------------| 
E|--3-----------------------|--3-----------------------| 

e|--------------|--------------| 
B|--------------|--------------| 
G|--5-----------|--3-----------| 
D|--4-----------|--2-----------| 
A|--5-----------|--3-----------| 
E|--------------|--------------| 

e|--2/3----5/6---14/15--|-15-15-15-15-15-15-15-15-| 
B|--2/3----5/6---14/15--|-15-15-15-15-15-15-15-15-| 
G|----------------------|-------------------------| 
D|----------------------|-------------------------| 
A|----------------------|-------------------------| 
E|----------------------|-------------------------| 


Post-Chorus 1 

e|----------------------------10-----|-----------------------------| 
B|--10--13-13--11p10-11p10-11----11--|--10--13-13--11p10-11----11--| 
G|-----------------------------------|-----------------------------| 
D|-----------------------------------|-----------------------------| 
A|-----------------------------------|-----------------------------| 
E|-----------------------------------|-----------------------------| 


verse 2 

e|----------------|----------------|----------------|------13b15-----| 
B|----------------|----------------|----------------|----------------| 
G|----3-----------|----3-----------|----3-----------|----------------| 
D|--5----5p3-5p3--|--5----5p3-5p3--|--5----5p3-5p3--|--5-------------| 
A|----------------|----------------|----------------|----------------| 
E|----------------|----------------|----------------|----------------| 

e|----------------|----------------|----------------|----------------| 
B|----------------|----------------|----------------|----------------| 
G|----3-----------|----3-----------|----3-----------|-----3-----3----| 
D|--5----5p3-5p3--|--5----5p3-5p3--|--5----5p3-5p3--|--5-----5-------| (x2) 
A|----------------|----------------|----------------|----------------| 
E|----------------|----------------|----------------|----------------| 

e|----------------|----------------|----------------|------13b15-----| 
B|----------------|----------------|----------------|----------------| 
G|----3-----------|----3-----------|----3-----------|----------------| 
D|--5----5p3-5p3--|--5----5p3-5p3--|--5----5p3-5p3--|--5-------------| 
A|----------------|----------------|----------------|----------------| 
E|----------------|----------------|----------------|----------------| 


Chorus 2 

e|--------------|----------------|---------------|---------------| 
B|--------------|-------------3--|---------------|---------------| 
G|-----------5--|----------------|------------5--|------------5--| 
D|----5--5------|----5-5-5-5-----|----5-5-5-5----|----5-5-5-5----| 
A|--3-----------|--3-------------|--3------------|--3------------| 
E|--------------|----------------|---------------|---------------| 

e|--------------------------|--------------------------| 
B|--------------------------|--------------------------| 
G|-------------------3------|-------------------3------| 
D|----5-5-5-5-5-5--5---5-3--|----5-5-5-5-5-5--5---5-3--| 
A|--------------------------|--------------------------| 
E|--3-----------------------|--3-----------------------| 

e|--------------|--------------| 
B|--------------|--------------| 
G|--5-----------|--3-----------| 
D|--4-----------|--2-----------| 
A|--5-----------|--3-----------| 
E|--------------|--------------| 

e|--2/3----5/6---14/15--|-15-15-15-15-15-15-15-15-| 
B|--2/3----5/6---14/15--|-15-15-15-15-15-15-15-15-| 
G|----------------------|-------------------------| 
D|----------------------|-------------------------| 
A|----------------------|-------------------------| 
E|----------------------|-------------------------| 


Post-Chorus 2 

e|----------------------------10-----|-----------------------------| 
B|--10--13-13--11p10-11p10-11----11--|--10--13-13--11p10-11----11--| 
G|-----------------------------------|-----------------------------| 
D|-----------------------------------|-----------------------------| (x2) 
A|-----------------------------------|-----------------------------| 
E|-----------------------------------|-----------------------------| 


Bridge 

e|-------8----------8--------|-------10----------10-------| 
B|--7-10----7-10-7-----10-8--|--8-11-----8-11-8-----11-8--| 
G|---------------------------|----------------------------| 
D|---------------------------|----------------------------| 
A|---------------------------|----------------------------| 
E|---------------------------|----------------------------| 

e|-------8-----8-8-8-8--6--------|------------------------| 
B|--7-10----7--------------10-8--|--8-----8-----8---8-----| 
G|-------------------------------|-----7-----7----7-------| 
D|-------------------------------|------------------------| 
A|-------------------------------|------------------------| 
E|-------------------------------|------------------------| 

e|-------8----------8--------|-------10----------10-------| 
B|--7-10----7-10-7-----10-8--|--8-11-----8-11-8-----11-8--| 
G|---------------------------|----------------------------| 
D|---------------------------|----------------------------| 
A|---------------------------|----------------------------| 
E|---------------------------|----------------------------| 

e|-------8-----8-8-8-8--6--------|------------------------| 
B|--7-10----7--------------10-8--|------------------------| 
G|-------------------------------|------------------------| 
D|-------------------------------|------------------------| 
A|-------------------------------|------------------------| 
E|-------------------------------|------------------------| 


verse 3 

e|----------------|----------------|----------------|------13b15-----| 
B|----------------|----------------|----------------|----------------| 
G|----3-----------|----3-----------|----3-----------|----------------| 
D|--5----5p3-5p3--|--5----5p3-5p3--|--5----5p3-5p3--|--5-------------| (x3) 
A|----------------|----------------|----------------|----------------| 
E|----------------|----------------|----------------|----------------| 

e|--2/3----5/6---14/15--|-15-15-15-15-15-15-15-15-| 
B|--2/3----5/6---14/15--|-15-15-15-15-15-15-15-15-| 
G|----------------------|-------------------------| 
D|----------------------|-------------------------| 
A|----------------------|-------------------------| 
E|----------------------|-------------------------| 


Chorus 3 

e|--------------|----------------|---------------|---------------| 
B|--------------|-------------3--|---------------|---------------| 
G|-----------5--|----------------|------------5--|------------5--| 
D|----5--5------|----5-5-5-5-----|----5-5-5-5----|----5-5-5-5----| 
A|--3-----------|--3-------------|--3------------|--3------------| 
E|--------------|----------------|---------------|---------------| 

e|--------------------------|--------------------------| 
B|--------------------------|--------------------------| 
G|-------------------3------|-------------------3------| 
D|----5-5-5-5-5-5--5---5-3--|----5-5-5-5-5-5--5---5-3--| 
A|--------------------------|--------------------------| 
E|--3-----------------------|--3-----------------------| 

e|--------------|--------------| 
B|--------------|--------------| 
G|--5-----------|--3-----------| 
D|--4-----------|--2-----------| 
A|--5-----------|--3-----------| 
E|--------------|--------------| 

e|--2/3----5/6---14/15--|-15-15-15-15-15-15-15-15-| 
B|--2/3----5/6---14/15--|-15-15-15-15-15-15-15-15-| 
G|----------------------|-------------------------| 
D|----------------------|-------------------------| 
A|----------------------|-------------------------| 
E|----------------------|-------------------------| 


Post-Chorus 3 

e|----------------------------10-----|-----------------------------| 
B|--10--13-13--11p10-11p10-11----11--|--10--13-13--11p10-11----11--| 
G|-----------------------------------|-----------------------------| 
D|-----------------------------------|-----------------------------| (x4) 
A|-----------------------------------|-----------------------------| 
E|-----------------------------------|-----------------------------| 



************************************ 

| h   Hammer-on 
| p   Pull-off 
| b   Bend 
| /   Slide up 

************************************ 
	  

Search Paypal
auto scroll beats size up size down change color hide chords drawings
tab show chords e-chords YouTube Clip e-chords hide all tabs e-chords go to top tab