Weezer

home > Weezer

Burnt Jamb Tab

Weezer

Difficulty: nolevelnolevel

tuner correct add songbook print version text version save to e-mail
chordsukulelecavacokeyboardtabbassdrumsharmonicsflute Guitar Pro
chords

Burnt Jamb

  		
This is off their new cd maladroit.  
its possible its a b-side because it hasnt come out yet, i dont know.  
Its a rare weezer instrumental, so enjoy it.Its simple 
 
-4-4-4-4-4---4-4--2-2-2-2-2--5-5-5-5-5---5-5-4-4-4-4-4------------------------------- 
-4-4-4-4-4---4-4--4-4-4-4-4--5-5-5-5-5---5-5-4-4-4-4-4------------------------------- 
------------------------------------------------------------------------------------- 
------------------------------------------------------------------------------------- 
------------------------------------------------------------------------------------- 
------------------------------------------------------------------------------------- 
 
 
Do-Do-Do-Do part 
 
chords.  
A, Bm 
A, Bm 
A, Bm, C#m, D, Bm, E 
 
Heavy part 
------------------------------------------------------------------------- 
------------------------------------------------------------------------- 
-------------------5-------------------5-------------------5-------------------5---- 
---------------5-7-----------------5-7-----------------5-7-----------------5-7------ 
---5-7-5-7-5-7---------5-7-5-7-5-7---------5-7-5-7-5-7---------5-7-5-7-5-7---------- 
-0-------------------0-------------------------------------------------------------- 
-----------------------------------------1-------------------3---------------------- 
And thats the song 
 

	  

Full key step upFull key step up
Half key step upHalf key step up
Half key step downHalf key step down
Full key step downFull key step down
Search Paypal
auto scroll beats size up size down change color hide chords drawings
tab show chords e-chords YouTube Clip e-chords hide all tabs e-chords go to top tab