Weezer

home > Weezer

Beverly Hills The correct Version Tab

Weezer

Difficulty: nolevelnolevel

by Brandon+Riggs

tuner correct add songbook print version text version save to e-mail
chordsukulelecavacokeyboardtabbassdrumsharmonicsflute Guitar Pro
chords

Beverly Hills The correct Version

  		  
 This IS right 
 
 
This part is palm muted but not when you bend and is played most of the song 
e------------       e---------- 
B------------       B---------- 
G-------3-3--       G--5-5----- 
D--3-3--3-3-- X 3   D--5-5--2b--  When you bend you have to make  
A--3-3--1-1--       A--3-3--2b--  sure you bend both strings or   
E--1-1-------       E----------   it doesn't sound right 
 
 
 
Chorus  This part is not palm muted 
e------------------------------------------------- 
B------------------------------------------------- 
G-------3-3--5-5-3-3------3-3--5-5---------------- 
D--3-3--3-3--5-5-3-3--3-3-3-3--5-5--2b------------ 
A--3-3--1-1--3-3-1-1--3-3-1-1--3-3--2b------------ 
E--1-1----------------1-1------------------------- 
 
I dont know the solo   
 
YET! 

	  

Search Paypal
auto scroll beats size up size down change color hide chords drawings
tab show chords e-chords YouTube Clip e-chords hide all tabs e-chords go to top tab