Weezer

home > Weezer

Back To The Shack (live) Tab

Weezer

Difficulty: EasyEasy

by hugo%5Frodrigues

tuner correct add songbook print version text version save to e-mail
chordsukulelecavacokeyboardtabbassdrumsharmonicsflute Guitar Pro
chords

Back To The Shack (live)

  		intro 
e--------------------------------------------------------------------| 
b--------------------------------------------------------------------| 
g-----3-4-3-3-1----3-4-3-1-------------------------------------------| 
d-4-6-----------4-6--------------------------------------------------| 
a-4-6-----------4-6--------------------------------------------------| 
e-2-4-----------2-4--------------------------------------------------| 

verse repeat as needed 
e-----------------------------------------------------------------| 
b-----------------------------------------------------------------| 
g-----------------------------------------------------------------| 
d-4---4-6---------------------------------------------------------| 
a-4---4-6---------------------------------------------------------| 
e-2---2-4---------------------------------------------------------| 

Chorus repeat as needed 
e---------------| 
b---------------| 
g---------------| 
d-6-4-----------| 
a-6-4-----------| 
e-4-2-----------| 

then intro 
hammer on 3-4-3 for both riffs on g string 
e------------------------------------------------------------------| 
b------------------------------------------------------------------| 
g-----3-4-3-3-1----3-4-3-1-----------------------------------------| 
d-4-6-----------4-6------------------------------------------------| 
a-4-6-----------4-6------------------------------------------------| 
e-2-4-----------2-4------------------------------------------------| 

verse 
e-----------------------------------------------------------------| 
b-----------------------------------------------------------------| 
g----3-4-3-3-1-----3-4-3-1----------------------------------------| 
d-6/------------6/------------------------------------------------| 
a-6/------------6/------------------------------------------------| 
e-4/------------4/------------------------------------------------| 


bridge 

slow build up slow slide up to A# then back to f# 
e-------------------------------------------------------------------| 
b-------------------------------------------------------------------| 
g-6-8---------------------------------------------------------------| 
d-6-8-6-3-8-4-5-6-7-8-4---------------------------------------------| 
a-4-6-6-3-8-4-5-6-7-8-4---------------------------------------------| 
e-----4-1-6-2-3-4-5-6-2---------------------------------------------| 
 
	  

Full key step upFull key step up
Half key step upHalf key step up
Half key step downHalf key step down
Full key step downFull key step down
Search Paypal
auto scroll beats size up size down change color hide chords drawings
tab show chords e-chords YouTube Clip e-chords hide all tabs e-chords go to top tab