save to print version add songbook text version e-mail correct tuner
chordsukulelecavacokeyboardtabbassdrumsharmonicaflute Guitar Pro
close

there isn't a video lesson for this song

chords

Leann

	  		
    e|------------------------------------------------------------------------| 
    B|------------------------------------------------------------------------| 
GTR G|-----9--------9-------9-------9-8h9p8-------9-------9-------9-------9---| 
 1  D|-11-----11-11---11-11---11-11---------9-7-9---9-7-9---9-7-9---9-7-9---9-| 
    A|------------------------------------------------------------------------| 
    E|------------------------------------------------------------------------| 

    e|----------------------------------------------------------------------| 
    B|-----------------------------------------9--10-9-------9--9-10-9------| 
GTR G|-9----9----9----9----9----9----9----9----9-------9-----9--9------9----| 
 2  D|---11---11---11---11---11---11---11---11-7---------11--7--7--------11-| 1, 
    A|----------------------------------------------------------------------| 
    E|----------------------------------------------------------------------| 

    e|------------------------------------------------------------------| 
    B|----------------------------------------9--9--7--7--9--9-7-9-7----| 
GTR G|-9----9----9-11-9-8-9----9----9----9----9--9--9--9--9--9-------9--| 
 2  D|---11---11------------11---11---11---11-7--7--7--7--7--7----------| 2,4,6 
    A|------------------------------------------------------------------| 
    E|------------------------------------------------------------------| 

    e|--------------------------------------------------------------------------| 
    B|-----------------------------------------9--9-9-10-9-------9--9-10-9------| 
GTR G|-9----9----9-11-9-8-9----9----9----9-----9--9-9------9-----9--9------9----| 
 2  D|---11---11------------11---11---11---11--7--7-7--------11--7--7--------11-| 3 
    A|--------------------------------------------------------------------------| 
    E|--------------------------------------------------------------------------| 

    e|------------------------------------------------------------------------| 
    B|----------------------------------------9--9--10-9-------9--9-10-9------| 
GTR G|-9----9----9-11-9-8-9----9----9----9----9--9-------9-----9--9------9----| 
 2  D|---11---11------------11---11---11---11-7--7---------11--7--7--------11-| 5,7 
    A|------------------------------------------------------------------------| 
    E|------------------------------------------------------------------------| 

    e|------------------------------------------------------------------| 
    B|----------------------------------------9--9--10--10--9--9--7--7--| 
GTR G|-9----9----9-11-9-8-9----9----9----9----9--9--9---9---9--9--9--9--| 
 2  D|---11---11------------11---11---11---11-7--7--7---7---7--7--7--7--| 8 
    A|------------------------------------------------------------------| 
    E|------------------------------------------------------------------| 

    e|--------------------------------------------12-------12----12-------12-------12----12-| 
    B|-----------------------------------------12----12----------------12----12-------------| 
GTR G|-----9--------9-------9-------9-8h9p8-13----------13----13----13----------13----13----| 
 1  D|-11-----11-11---11-11---11-11---------------------------------------------------------| 8 
    A|--------------------------------------------------------------------------------------| 
    E|--------------------------------------------------------------------------------------| 

    e|------------9----------------------------9-----------------------9----------------------9-------------| 
    B|-12-(Ring)--9-(Ring out)------12-(Ring)--9-(Ring out)-12-(Ring)--9-(Ring out)-12-(Ring)-9-(Ring out)--| 
GTR G|-13---------9-----------------13---------9------------13---------9------------13--------9-------------| 
 1  D|------------------------------------------------------------------------------------------------------| 
    A|------------------------------------------------------------------------------------------------------| 
    E|------------------------------------------------------------------------------------------------------| 

    e|-------------9-9-9-9-9-9-9-9--------------------------------------------------------------------------| 
    B|-------------9-9-9-9-9-9-9-9--------------------------------------------------------------------------| 
GTR G|-6--8--8--8--9-9-9-9-9-9-9-9-6--8--8--8--9-----9-----6--8--8--8--9---9---9---6--8--8--8--9---------9--| 
 2  D|-6--6--6--6------------------6--6--6--6-----9-----9--6--6--6--6----9---9---9-6--6--6--6-----9--9------| 
    A|-4--6--6--6------------------4--6--6--6--------------4--6--6--6--------------4--6--6--6---------------| 
    E|------------------------------------------------------------------------------------------------------| 

    e|-------12----------------------12----------------------------------------------------| 
    B|-------------------------------------------------------------------------------------| 
GTR G|----11----11----13----11----11----11----13----11----9--------9--------9--------9-----| 
 1  D|-14----------14----14----14----------14----14----13-------13-------13-------13-------| x4 
    A|------------------------------------------------------14-------14-------14-------14--| 
    E|-------------------------------------------------------------------------------------| 

    e|-------------------------------------------------------------------------------------| 
    B|-------------------------------------------------------------------------------------| 
GTR G|-9--------9--11-------11-9--------9--11-------11-8------8-8------8-8------8-8------8-| 
 2  D|-------------------------------------------------------------------------------------| x4 
    A|-7--------7--9--------9--7--------7--9--------9--6------6-6------6-6------6-6------6-| 
    E|-------------------------------------------------------------------------------------| 

The gaps between chords aren't this big it's just to keep it with GTR 1. Listen to the song to get the thythm. 

    e|------------9----------------------------9-----------------------9----------------------9-------------| 
    B|-12-(Ring)--9-(Ring out)------12-(Ring)--9-(Ring out)-12-(Ring)--9-(Ring out)-12-(Ring)-9-(Ring out)--| 
GTR G|-13---------9-----------------13---------9------------13---------9------------13--------9-------------| 
 1  D|------------------------------------------------------------------------------------------------------| 
    A|------------------------------------------------------------------------------------------------------| 
    E|------------------------------------------------------------------------------------------------------| 

    e|-------------9-9-9-9-9-9-9-9--------------------------------------------------------------------------| 
    B|-------------9-9-9-9-9-9-9-9--------------------------------------------------------------------------| 
GTR G|-6--8--8--8--9-9-9-9-9-9-9-9-6--8--8--8--9-----9-----6--8--8--8--9---9---9---6--8--8--8--9---------9--| 
 2  D|-6--6--6--6------------------6--6--6--6-----9-----9--6--6--6--6----9---9---9-6--6--6--6-----9--9------| 
    A|-4--6--6--6------------------4--6--6--6--------------4--6--6--6--------------4--6--6--6---------------| 
    E|------------------------------------------------------------------------------------------------------| 

    e|------------------------------------------------------------------------| 
    B|------------------------------------------------------------------------| 
GTR G|-----9--------9-------9-------9-8h9p8-------9-------9-------9-------9---| 
 1  D|-11-----11-11---11-11---11-11---------9-7-9---9-7-9---9-7-9---9-7-9---9-|  
    A|------------------------------------------------------------------------| 
    E|------------------------------------------------------------------------| 

    e|----------------------------------------------------------------------| 
    B|-----------------------------------------9--10-9-------9--9-10-9------| 
GTR G|-9----9----9----9----9----9----9----9----9-------9-----9--9------9----| 
 2  D|---11---11---11---11---11---11---11---11-7---------11--7--7--------11-|  
    A|----------------------------------------------------------------------| 
    E|----------------------------------------------------------------------| 

    e|------------------------------------------------------------------------| 
    B|------------------------------------------------------------------------| 
GTR G|-----9--------9-------9-------9-8h9p8-------9-------9-------9-------9---| 
 1  D|-11-----11-11---11-11---11-11---------9-7-9---9-7-9---9-7-9---9-7-9---9-|  
    A|------------------------------------------------------------------------| 
    E|------------------------------------------------------------------------| 

    e|--------------------------------------------------------7----| 
    B|----------------------------------------9----10----9----9----| 
GTR G|-9----9----9-11-9-8-9----9----9----9----9----9-----9----9----| 
 2  D|---11---11------------11---11---11---11-7----7-----7---------| 
    A|-------------------------------------------------------------| 
    E|-------------------------------------------------------------| 

    e|-------------------------------------------------------------------------| 
    B|-------------------------------------------------------------------------| 
GTR G|-----9--------9-------9-------9-8-brb--------9-------9-------9-------9---| 
 1  D|-11-----11-11---11-11---11-11----------9-7-9---9-7-9---9-7-9---9-7-9---9-| 3 
    A|-------------------------------------------------------------------------| 
    E|-------------------------------------------------------------------------| 

    e|--------------------------------------------------------------------------| 
    B|-----------------------------------------9--9-9-10-9-------9--9-10-9------| 
GTR G|-9----9----9-11-9-8-9----9----9----9-----9--9-9------9-----9--9------9----| 
 2  D|---11---11------------11---11---11---11--7--7-7--------11--7--7--------11-| 3 
    A|--------------------------------------------------------------------------| 
    E|--------------------------------------------------------------------------| 

    e|------------------------------------------------------------------| 
    B|----------------------------------------9--9--10--10--9--9--7--7--| 
GTR G|-9----9----9-11-9-8-9----9----9----9----9--9--9---9---9--9--9--9--| 
 2  D|---11---11------------11---11---11---11-7--7--7---7---7--7--7--7--| 4 
    A|------------------------------------------------------------------| 
    E|------------------------------------------------------------------| 

    e|--------------------------------------------12-------12----12-------12-------12----12-| 
    B|-----------------------------------------12----12----------------12----12-------------| 
GTR G|-----9--------9-------9-------9-8h9p8-13----------13----13----13----------13----13----| 
 1  D|-11-----11-11---11-11---11-11---------------------------------------------------------| 4 
    A|--------------------------------------------------------------------------------------| 
    E|--------------------------------------------------------------------------------------| 

    e|-------------------------------------------------------------------| 
    B|-------------------------------------------------------------------| 
GTR G|-6-6-6-6-6-6-6-6-6-6-6-6-6-6-6-6-----------------------------------| 
 1  D|---------------------------------7-7-7-7-7-7-7-7-7-7-7-7-7-7-7-7-7-| 
    A|-4-4-4-4-4-4-4-4-4-4-4-4-4-4-4-4-4-4-4-4-4-4-4-4-4-4-4-4-4-4-4-4-4-| 
    E|---------------------------------5-5-5-5-5-5-5-5-5-5-5-5-5-5-5-5-5-| 

    e|-------------------------------------------------------------------| 
    B|-----5-------5-------5-------5------4--5--4--0---------------------| 
GTR G|---6-------6-------6-------6-----2-------------2----21-21-21-21-21-| 
 2  D|-7-------7-------7-------7-------2-------------2-------------------| 
    A|---------------------------------0-------------0----19-19-19-19-19-| 
    E|-------------------------------------------------------------------| 

    e|-------------------------------------------------------------------| 
    B|-------------------------------------------------------------------| 
GTR G|-6-6-6-6-6-6-6-6-6-6-6-6-6-6-6-6-----------------------------------| 
 1  D|---------------------------------7-7-7-7-7-7-7-7-7-7-7-7-7-7-7-7-7-| 
    A|-4-4-4-4-4-4-4-4-4-4-4-4-4-4-4-4-4-4-4-4-4-4-4-4-4-4-4-4-4-4-4-4-4-| 
    E|---------------------------------5-5-5-5-5-5-5-5-5-5-5-5-5-5-5-5-5-| 

    e|--------------------------------------------------------------| 
    B|-----5-------5-------5-------5---------5--5-5-5------4--4-4-4-| 
GTR G|---6-------6-------6-------6-----2--2--2--2-2-2-2--2-2--2-2-2-| 
 2  D|-7-------7-------7-------7-------2--2--2--2-2-2-2--2-2--2-2-2-| 
    A|---------------------------------0--0--0--0-0-0-0--0-0--------| 
    E|--------------------------------------------------------------| 

    e|-------------------------------------------------------------------| 
    B|-------------------------------------------------------------------| 
GTR G|-6-6-6-6-6-6-6-6-6-6-6-6-6-6-6-6-----------------------------------| 
 1  D|---------------------------------7-7-7-7-7-7-7-7-7-7-7-7-7-7-7-7-7-| 
    A|-4-4-4-4-4-4-4-4-4-4-4-4-4-4-4-4-4-4-4-4-4-4-4-4-4-4-4-4-4-4-4-4-4-| 
    E|---------------------------------5-5-5-5-5-5-5-5-5-5-5-5-5-5-5-5-5-| 

    e|---------------------------------------------------------------| 
    B|-----5-------5-------5-------5---5-4-0-5-4-0-5-4-0-5-4-0-4--4--| 
GTR G|---6-------6-------6-------6-----------------------------2--2--| 
 2  D|-7-------7-------7-------7-------------------------------2--2--| 
    A|---------------------------------------------------------0--0--| 
    E|---------------------------------------------------------------| 

    e|-------------------------------------------------------------------| 
    B|-------------------------------------------------------------------| 
GTR G|-6-6-6-6-6-6-6-6-6-6-6-6-6-6-6-6-----------------------------------| 
 1  D|---------------------------------7-7-7-7-7-7-7-7-7-7-7-7-7-7-7-7-7-| 
    A|-4-4-4-4-4-4-4-4-4-4-4-4-4-4-4-4-4-4-4-4-4-4-4-4-4-4-4-4-4-4-4-4-4-| 
    E|---------------------------------5-5-5-5-5-5-5-5-5-5-5-5-5-5-5-5-5-| 

    e|-------------------------------------------------------------| 
    B|-5-4-0-5-4-0-5-4-0-5-4-0-5-4-0--------5--5-5-5------4--4-4-4-| 
GTR G|--------------------------------2--2--2--2-2-2-2--2-2--2-2-2-| 
 2  D|--------------------------------2--2--2--2-2-2-2--2-2--2-2-2-| 
    A|--------------------------------0--0--0--0-0-0-0--0-0--------| 
    E|-------------------------------------------------------------| 

    e|-------12----------------------12----------------------------------------------------| 
    B|-------------------------------------------------------------------------------------| 
GTR G|----11----11----13----11----11----11----13----11----9--------9--------9--------9-----| 
 1  D|-14----------14----14----14----------14----14----13-------13-------13-------13-------| x3 
    A|------------------------------------------------------14-------14-------14-------14--| 
    E|-------------------------------------------------------------------------------------| 

    e|-------------------------------------------------------------------------------------| 
    B|-------------------------------------------------------------------------------------| 
GTR G|-9--------9--11-------11-9--------9--11-------11-8------8-8------8-8------8-8------8-| 
 2  D|-------------------------------------------------------------------------------------| x3 
    A|-7--------7--9--------9--7--------7--9--------9--6------6-6------6-6------6-6------6-| 
    E|-------------------------------------------------------------------------------------| 

    e|-------12----------------------12----------------------------------------------------| 
    B|-------------------------------------------------------------------------------------| 
GTR G|----11----11----13----11----11----11----13----11----9--------9--------9--------9-----| 
 1  D|-14----------14----14----14----------14----14----13-------13-------13-------13-------| x1 
    A|------------------------------------------------------14-------14-------14-------14--| 
    E|-------------------------------------------------------------------------------------| 

    e|---------------------------------------------------------------------------------| 
    B|-----------------------------------------------------5-------5-------5-------5---| 
GTR G|-9--------9--11-------11-9--------9--11-------11-2h4---4-2h4---4-2h4---4-2h4---4-| 
 2  D|---------------------------------------------------------------------------------| x1 
    A|-7--------7--9--------9--7--------7--9--------9----------------------------------| 
    E|---------------------------------------------------------------------------------| 

    e|------------------------------------| 
    B|-----5-------5-------5-------5------| 
GTR G|-2h4---4-2h4---4-2h4---4-2h4---4----| 
 1  D|------------------------------------| 
    A|------------------------------------| 
    E|------------------------------------| 

    e|--------------| 
    B|--------------| 
GTR G|-9-(ring out)-| 
 2  D|--------------| 
    A|-7------------| 
    E|--------------| 



************************************ 
| h   Hammer-on 
| p   Pull-off 
| b   Bend 

************************************ 
		  

auto scroll beats size up size down change color hide chords drawings
tab show chords e-chords YouTube Clip e-chords hide all tabs e-chords go to top tab

share